Free

Free
Alright Now (Guitar tab)

Alright Now Free

Here's the complete song + solo. You could try leaving out some notes on the
riff to make it easier.

My Rig:
Squire Telecaster
Marshall 50 watt amp
Morley wah wah

My Favourite Bands:
Primus
Clutch
No Doubt

My Favourite guitar websites:
http://www.tabclawer.com - good tab site
http://www.nodoubt.com - no doubt's official site
http://www.guitarandbass.co.uk - brilliant guitar lesson site



E||---------------------|--5-----------------|
B||--5-------------3----|--5-----------------|
G||--2-------------2----|--2-----------------|
D||--2-------------4----|--2-----------------|
A||--0----------0-------|--0--------------0--|
E||---------------------|--------------------|



--0-0----------------------|--5----------------|---------------------|
--3-3--3-3----3-3--3-3-----|--5----------------|--5-------------3----|
--0-0--2-2----0-0--2-2-----|--2----------------|--2-------------2----|
--4-4--4-4----4-4--4-4-----|--2----------------|--2-------------4----|
------------------------0--|--0----------------|--0----------0-------|
---------------------------|-------------------|---------------------|



--5-----------------|--0-0----------------------|--5----------------|
--5-----------------|--3-3--3-3----3-3--3-3-----|--5----------------|
--2-----------------|--0-0--2-2----0-0--2-2-----|--2----------------|
--2-----------------|--4-4--4-4----4-4--4-4-----|--2----------------|
--0--------------0--|------------------------0--|--0----------------|
--------------------|---------------------------|-------------------|



---------------------|--5-----------------|
--5-------------3----|--5-----------------|
--2-------------2----|--2-----------------|
--2-------------4----|--2-----------------|
--0----------0-------|--0--------------0--|
---------------------|--------------------|



--0-0----------------------|--5----------------|---------------------|
--3-3--3-3----3-3--3-3-----|--5----------------|--5-------------3----|
--0-0--2-2----0-0--2-2-----|--2----------------|--2-------------2----|
--4-4--4-4----4-4--4-4-----|--2----------------|--2-------------4----|
------------------------0--|--0----------------|--0----------0-------|
---------------------------|-------------------|---------------------|



--5-----------------|--0-0----------------------|--5----------------|
--5-----------------|--3-3--3-3----3-3--3-3-----|--5----------------|
--2-----------------|--0-0--2-2----0-0--2-2-----|--2----------------|
--2-----------------|--4-4--4-4----4-4--4-4-----|--2----------------|
--0--------------0--|------------------------0--|--0----------------|
--------------------|---------------------------|-------------------|



---------------------|--5-----------------|
--5-------------3----|--5-----------------|
--2-------------2----|--2-----------------|
--2-------------4----|--2-----------------|
--0----------0-------|--0--------------0--|
---------------------|--------------------|



--0-0----------------------|--5----------------|---------------------|
--3-3--3-3----3-3--3-3-----|--5----------------|--5-------------3----|
--0-0--2-2----0-0--2-2-----|--2----------------|--2-------------2----|
--4-4--4-4----4-4--4-4-----|--2----------------|--2-------------4----|
------------------------0--|--0----------------|--0----------0-------|
---------------------------|-------------------|---------------------|



--5-----------------|--0-0----------------------|--5----------------|
--5-----------------|--3-3--3-3----3-3--3-3-----|--5----------------|
--2-----------------|--0-0--2-2----0-0--2-2-----|--2----------------|
--2-----------------|--4-4--4-4----4-4--4-4-----|--2----------------|
--0--------------0--|------------------------0--|--0----------------|
--------------------|---------------------------|-------------------|



------------------------|------------------|---------------------|
--5----5-------------3--|------------------|--3----3----------5--|
--6----6----2--------4--|------------------|--2----2----------6--|
--7----7----2--4--2--5--|------------------|--4----4----------7--|
------------------------|------------------|---------------------|
------------------------|------------------|---------------------|



------------------|------------------------|------------------|
------------------|--5----5-------------3--|------------------|
------------------|--6----6----2--------4--|------------------|
------------------|--7----7----2--4--2--5--|------------------|
------------------|------------------------|------------------|
------------------|------------------------|------------------|



---------------------|------------------|------------------|
--3----3----------5--|------------------|------------------|
--2----2----------6--|------------------|------------------|
--4----4----------7--|------------------|------------------|
---------------------|------------------|------------------|
---------------------|------------------|------------------|



---------------------|--5-----------------|
--5-------------3----|--5-----------------|
--2-------------2----|--2-----------------|
--2-------------4----|--2-----------------|
--0----------0-------|--0--------------0--|
---------------------|--------------------|



--0-0----------------------|--5----------------|---------------------|
--3-3--3-3----3-3--3-3-----|--5----------------|--5-------------3----|
--0-0--2-2----0-0--2-2-----|--2----------------|--2-------------2----|
--4-4--4-4----4-4--4-4-----|--2----------------|--2-------------4----|
------------------------0--|--0----------------|--0----------0-------|
---------------------------|-------------------|---------------------|



--5-----------------|--0-0----------------------|--5----------------|
--5-----------------|--3-3--3-3----3-3--3-3-----|--5----------------|
--2-----------------|--0-0--2-2----0-0--2-2-----|--2----------------|
--2-----------------|--4-4--4-4----4-4--4-4-----|--2----------------|
--0--------------0--|------------------------0--|--0----------------|
--------------------|---------------------------|-------------------|



---------------------|--5-----------------|
--5-------------3----|--5-----------------|
--2-------------2----|--2-----------------|
--2-------------4----|--2-----------------|
--0----------0-------|--0--------------0--|
---------------------|--------------------|



--0-0----------------------|--5----------------|---------------------|
--3-3--3-3----3-3--3-3-----|--5----------------|--5-------------3----|
--0-0--2-2----0-0--2-2-----|--2----------------|--2-------------2----|
--4-4--4-4----4-4--4-4-----|--2----------------|--2-------------4----|
------------------------0--|--0----------------|--0----------0-------|
---------------------------|-------------------|---------------------|



--5-----------------|--0-0----------------------|--5----------------|
--5-----------------|--3-3--3-3----3-3--3-3-----|--5----------------|
--2-----------------|--0-0--2-2----0-0--2-2-----|--2----------------|
--2-----------------|--4-4--4-4----4-4--4-4-----|--2----------------|
--0--------------0--|------------------------0--|--0----------------|
--------------------|---------------------------|-------------------|



---------------------|--5-----------------|
--5-------------3----|--5-----------------|
--2-------------2----|--2-----------------|
--2-------------4----|--2-----------------|
--0----------0-------|--0--------------0--|
---------------------|--------------------|



--0-0----------------------|--5----------------|
--3-3--3-3----3-3--3-3-----|--5----------------|
--0-0--2-2----0-0--2-2-----|--2----------------|
--4-4--4-4----4-4--4-4-----|--2----------------|
------------------------0--|--0----------------|
---------------------------|-------------------|



------------------------|------------------|---------------------|
--5----5-------------3--|------------------|--3----3----------5--|
--6----6----2--------4--|------------------|--2----2----------6--|
--7----7----2--4--2--5--|------------------|--4----4----------7--|
------------------------|------------------|---------------------|
------------------------|------------------|---------------------|



------------------|------------------------|------------------|
------------------|--5----5-------------3--|------------------|
------------------|--6----6----2--------4--|------------------|
------------------|--7----7----2--4--2--5--|------------------|
------------------|------------------------|------------------|
------------------|------------------------|------------------|



---------------------|------------------|------------------|
--3----3----------5--|------------------|------------------|
--2----2----------6--|------------------|------------------|
--4----4----------7--|------------------|------------------|
---------------------|------------------|------------------|
---------------------|------------------|------------------|



--------------------------------------|----------------------|
-----13-----13-----13-----15--13------|------13--------------|
--14-----14-----14-----14---------14--|--14------------------|
--------------------------------------|----------------------|
--------------------------------------|----------------------|
--------------------------------------|----------------------|



------------------------------|--------------------|
--15r-----15h13-15h--13-------|--------------------|
------------------------14----|--14/---------------|
------------------------------|--------------------|
------------------------------|--------------------|
------------------------------|--------------------|



--------------------------------------|----------------------------|
-----13-----13-----13-----13--13------|------13--------15r---15h13-|
--14-----14-----14-----14---------14--|--14------------------------|
--------------------------------------|----------------------------|
--------------------------------------|----------------------------|
--------------------------------------|----------------------------|



--------------------------|--15b---------------|------------------|
--15b-------15b---13------|--------------------|------------------|
---------------------14---|--------------------|------------------|
--------------------------|--------------------|------------------|
--------------------------|--------------------|------------------|
--------------------------|--------------------|------------------|



------------------|------------------|------------------|
------------------|------------------|------------------|
------------------|------------------|------------------|
------------------|------------------|------------------|
------------------|------------------|------------------|
------------------|------------------|------------------|



-------------------|---------------------|--------------------|
-------------------|---------------------|--------------------|
--2~---------------|--4~---------2/-4----|--4/2---------------|
-------------------|---------------------|--------------------|
-------------------|---------------------|--------------------|
-------------------|---------------------|--------------------|



---------------------|-------------------|----------------------|
---------------------|-------------------|--5------5/-7------7/-|
--------2/-4~-----4/-|--2----------------|----------------------|
---------------------|-------------------|----------------------|
---------------------|-------------------|----------------------|
---------------------|-------------------|----------------------|



-------------------|----------------------|--------------------|
--5~---------------|--5------5/-7------7/-|--5~----------------|
-------------------|----------------------|-----------------4--|
-------------------|----------------------|--------------------|
-------------------|----------------------|--------------------|
-------------------|----------------------|--------------------|



--------5-------------|-------------------|--------------------|
----------------------|-------------------|--10~---------------|
-------------4r-4--4--|--2~---------------|--------------------|
----------------------|-------------------|--------------------|
----------------------|-------------------|--------------------|
----------------------|-------------------|--------------------|



------------------|----------------------------------------|
------------------|----10------10------10------10------10--|
------------------|-------9h11----9h11----9h11----9h11-----|
------------------|----------------------------------------|
------------------|----------------------------------------|
------------------|----------------------------------------|



--------------------|-------------------------------------------|
--12b---------------|-------10------10------10------10------10--|
--------------------|--9h11----9h11----9h11----9h11----9h11-----|
--------------------|-------------------------------------------|
--------------------|-------------------------------------------|
--------------------|-------------------------------------------|



--------------------|--------------------------|--------------------|
--12b---------------|--12r-----10----------10--|-----------------12r|
--------------------|------------------11------|--------------------|
--------------------|--------------------------|--------------------|
--------------------|--------------------------|--------------------|
--------------------|--------------------------|--------------------|



------------------------|--------------------|
--------10----------10--|-----------------12r|
----------------11------|--------------------|
------------------------|--------------------|
------------------------|--------------------|
------------------------|--------------------|



------------------------|------------------|
--------10----------10--|------------------|
----------------11------|------------------|
------------------------|------------------|
------------------------|------------------|
------------------------|------------------|



--------17-------17-------17-------17-------17--|
--17h20----17h20----17h20----17h20----17h20-----|
------------------------------------------------|
------------------------------------------------|
------------------------------------------------|
------------------------------------------------|



--------------17------20r-|----20h17-17----------17------|
--20b-------------17------|--------------20b---------20b-|
--------------------------|------------------------------|
--------------------------|------------------------------|
--------------------------|------------------------------|
--------------------------|------------------------------|



----------------17--|--------17-------17-------17-------17-------17--|
--------------------|--17h20----17h20----17h20----17h20----17h20-----|
--------------------|------------------------------------------------|
--------------------|------------------------------------------------|
--------------------|------------------------------------------------|
--------------------|------------------------------------------------|



----------17~-----17------|--20r-----20r-------20h-17--|
--20b-----------------17--|----------------------------|
--------------------------|----------------------------|
--------------------------|----------------------------|
--------------------------|----------------------------|
--------------------------|----------------------------|



--20------------17--------|------------------------|
------20b-------------20--|--20r-----19------17~---|
--------------------------|------------------------|
--------------------------|------------------------|
--------------------------|------------------------|
--------------------------|------------------------|



------------------|------------------|------------------------|
------------------|------------------|--5----5-------------3--|
------------------|------------------|--6----6----2--------4--|
------------------|------------------|--7----7----2--4--2--5--|
------------------|------------------|------------------------|
------------------|------------------|------------------------|



------------------|---------------------|------------------|
------------------|--3----3----------5--|------------------|
------------------|--2----2----------6--|------------------|
------------------|--4----4----------7--|------------------|
------------------|---------------------|------------------|
------------------|---------------------|------------------|



------------------------|------------------|---------------------|
--5----5-------------3--|------------------|--3----3----------5--|
--6----6----2--------4--|------------------|--2----2----------6--|
--7----7----2--4--2--5--|------------------|--4----4----------7--|
------------------------|------------------|---------------------|
------------------------|------------------|---------------------|



------------------|------------------------|------------------|
------------------|--5----5-------------3--|------------------|
------------------|--6----6----2--------4--|------------------|
------------------|--7----7----2--4--2--5--|------------------|
------------------|------------------------|------------------|
------------------|------------------------|------------------|



---------------------|------------------|------------------------|
--3----3----------5--|------------------|--5----5-------------3--|
--2----2----------6--|------------------|--6----6----2--------4--|
--4----4----------7--|------------------|--7----7----2--4--2--5--|
---------------------|------------------|------------------------|
---------------------|------------------|------------------------|



------------------|--------------------|-------------------|
------------------|--3----3------------|--5----------------|
------------------|--2----2------------|--6----------------|
------------------|--4----4------------|--7----------------|
------------------|--------------------|--0----------------|
------------------|--------------------|-------------------|



------------------------|-------------------|---------------------|
--5----5-------------3--|----------3/-------|--3----3----------5--|
--6----6----2--------4--|----------4/-------|--2----2----------6--|
--7----7----2--4--2--5--|----------5/-------|--4----4----------7--|
------------------------|-------------------|---------------------|
------------------------|-------------------|---------------------|



------------------|------------------------|------------------|
------------------|--5----5-------------3--|------------------|
------------------|--6----6----2--------4--|------------------|
------------------|--7----7----2--4--2--5--|------------------|
------------------|------------------------|------------------|
------------------|------------------------|------------------|



--------------------|-------------------||
--3----3------------|--5----------------||
--2----2------------|--6----------------||
--4----4------------|--7----------------||
--------------------|--0----------------||
--------------------|-------------------||

OptimusPrime

Submitted by OptimusPrime at Sun 01 Dec, 2002 9:51 am

Author: ?
Composer: ?
Publisher: ?
Language: English

Reactions

CommonCrawl [Bot]

Follow Muzikum