Box Car Racer
01 I Feel So (Bass tab)

Riff 1
G-----------------
D-----------------
A--------------5--
E--0-33-0-33-3----

Riff 2
G-----------------
D-----------------
A--------------2--
E--0-33-0-33-3----

riff 3
G---------------------------------------------
D---------------------------------------------
A--7777777777-6666666666-4444444444-6666666666
E---------------------------------------------

Riff 4
G--4444444-44-44444444-44-44444444-44-44444444
D---------------------------------------------
A---------------------------------------------
E---------------------------------------------

Copyrights
Author: ?
Composer: ?
Publisher: ?

Reactions

CommonCrawl [Bot]

Follow Muzikum