Nerf Herder

Nerf Herder
Doin Laundry (Guitar chord)

Date: Wed, 12 Jul 2000 09:06:02 -0400
From: steve pass
Subject: n/nerf_herder/doin_laundry.crd

Song: Doin' Laundry
Band: Nerf Herder
CD: Short Music For Short People (Fat Wreck Chords)
Tabbed By: DgNrX (smp469@thetoilet.net)
-----------------------------------------------------------
Chords used:
e-|-------------|
B-|-------------|
G-|----5--7-----|
D-|-5--5--7--7--|
A-|-5--3--5--7--|
E-|-3--------5--|
G C D A
-----------------------------------------------------------

Intro:

G G G
Kneehigh! Argyle! Tube!

Song:

G C
I was ...
G G
into ...
G C G
I was ...
C D
I was ...
A D
I can't ...
G C G G
I was ...

-----------------------------------------------
FREE! The World's Best Email Address @email.com
Reserve your name now at http://www.email.com

OptimusPrime

Submitted by OptimusPrime at Tue 18 Dec, 2001 1:09 pm

Author: ?
Composer: ?
Publisher: ?
Language: English

Reactions

CommonCrawl [Bot]

Follow Muzikum