Sex Pistols
E (Guitar tab)

~=let ring
#=p.m.

intro:

|--#------|--------|-------------------
|--#------|--------|-------------------
|--#------|--------|-------------------
|--2------|----7---|----2~--2--4--7--
|--2------|----7---|----2~--2--4--7--
|---------|----5---|-----------2--5--
^x16 | ^x8 |

verse:
p.m.
|--#-------#--
|--#-------#--
|--2-------#--
|--2-------2--
|----------2--
|-------------
^x8 ^x8

chorus:

|------------|-----------
|------------|-----------
|----7-------|-----------
|----7---7---|---7--8--7
|----5---7---|---7--8--7
|----5---5---|---5--6--5

Verse type 2:The bit when he says "sir and freinds are crucified"

|-----------------------------------------|---------------
|--------------------------------|-------------
|--------------------------------|-------------
|---------------------------2~~--|--7~--4--3--2
|---------------------------2~~--|--7~--4--3--2
|--7~-2~-7--2--5~--7~2~1~0--0~~--|--5~--2--1--0

end it on:

|------------
|--------
|--------
|--7~~~~~
|--7~~~~~
|--5~~~~~

Copyrights
Author: ?
Composer: ?
Publisher: ?
More details
Language: English

Reactions

CommonCrawl [Bot]

Follow Muzikum