Sugar Ray
Falls Apart (Bass tab)

Album: 14:59


Return to Music X

Music X Bass Tab


Song: Falls Apart
Band: Sugar Ray
Album: 14:59

Tabbed by: Bech (Bech@Lycosemail.com)



Intro
G|------------------|-----------------|-----------------|------------------|
D|o-----------------|-----------------|-----------------|-----------------o|
A|o-----------------|-----------------|-7-7-7-7-7-7-7-7-|-4-4-4-4-2-2-2-2-o|
E|--0-0-0-0-0-0-0-0-|-5-5-5-5-5-5-5-5-|-----------------|------------------|

G|-----------------|
D|-----------------|
A|-----------------|
E|-----------------|



Verse
G|------------------|-----------------|-----------------|------------------|
D|o-----------------|-----------------|-----------------|-----------------o|
A|o-7-7-7-7-7-7-7-7-|-----------------|-7-7-7-7-7-7-7-7-|-4-4-4-4-2-2-2-2-o|
E|------------------|-5-5-5-5-5-5-5-5-|-----------------|------------------|

G|-----------------|-----------------|-----------------|-----------------|
D|-----------------|-----------------|-----------------|-----------------|
A|-4-4-4-4-4-4-4-4-|-2-2-2-2-2-2-2-2-|-4-4-4-4-4-4-4-4-|-2-2-2-2-2-2-----|
E|-----------------|-----------------|-----------------|-------------4-2-|

G|-----------------|-----------------|-----------------|-----------------|
D|-----------------|-----------------|-----------------|-----------------|
A|-----------------|-----------------|-----------------|-4-4-4-4-2-2-----|
E|-0-0-0-0-0-0-0-0-|-5-5-5-5-5-5-5-5-|-----------------|-----------------|



Chorus
G|------------------|-----------------|-----------------|------------------|
D|o-----------------|-----------------|-----------------|-----------------o|
A|o-----------------|-----------------|-----------------|-4-4-4-4-2-2-2-2-o|
E|--0-0-0-0-0-0-0-0-|-5-5-5-5-5-5-5-5-|-0-0-0-0-0-0-0-0-|------------------|



Bridge
G|-----------------|-----------------|-----------------|-----------------|
D|-----------------|-----------7-----|-----------------|-----7-------9---|
A|-----------------|-----------------|-----------------|-----------------|
E|-4-4-4-4-4-4-4-4-|-5-5-5-5-5---5---|-4-4-4-4-4-4-4-4-|-5-5---5/7-7---7-|

G|-----------------|-----------------|-----------------|-----------------|
D|-----------------|-----4/6--4------|-----7-----------|-----------------|
A|-----------------|------------6-4--|-----------------|-----------------|
E|-4-4-4-4-4-4-4-4-|-----------------|-5-5---5-5-5-5-5-|-4-4---4-----4-4-|

G|-----------------|-----------------|-----------------|-----------------|
D|-----------------|-----------------|-----------------|-----------------|
A|-----------2-2\0-|-----------------|-----------------|-----------------|
E|-5-5-5-5---------|-0---------------|-----------------|-----------------|

G|-----------------|-----------------|-----------------|-----------------|
D|-----------------|-----------------|-----------------|-----------------|
A|-----------------|-----------------|-----------------|-7-7-7-7-7-7-7-7-|
E|-----------------|-0-0-0-0-0-0-0-0-|-5-5-5-5-5-5-5-5-|-----------------|

G|-----------------|
A|-4-4-4-4---------|
E|---------7-7-7-0-|



Verse 3
G|-----------------|-----------------|-----------------|-----------------|
D|-----------------|-----------------|-----------------|-----------------|
A|-7-7-7-7-7-7-7-7-|-0-0-0-0-0-0-0-0-|-7-7-7-7-7-7-7-7-|-4-4-4-4-2-2-2-2-|
E|-----------------|-----------------|-----------------|-----------------|

G|-----------------|-6---------------|-----------------|-----------------|
D|-6---------------|-----------------|-6---------------|-----------------|
A|-----------------|-----------------|-----------------|-4-4-4-4---------|
E|-----------------|-----------------|-----------------|-----------------|



Outro
G|-----------------|-----------------|-----------------|-----------------|
D|-----------------|-----------------|-----------------|-----------------|
A|-----------------|-----------------|-----------------|-4-4-4-4-2-2-2-2-|
E|-0-0-0-0-0-0-0-0-|-5-5-5-5-5-5-5-5-|-0-0-0-0-0-0-0-0-|-----------------|

G|-----------------|-----------------|-----------------|-----------------|
D|-----------------|-----------------|-----------------|-----------------|
A|-----------------|-----------------|-----------------|-4-4-4-4-2-2-----|
E|-0-0-0-0-0-0-0-0-|-5-5-5-5-5-5-5-5-|-0-0-0-0-0-0-0-0-|-------------4-2-|

G|-----------------|-----------------|-----------------|-----------------|
D|-----------------|-----------------|-2-2-2-2-2-2-4/6-|-----------------|
A|-----------------|-0-0-0-0-0-0-2-4-|-----------------|-4-4-4-4-2-2-2---|
E|-0-0-0-0-0-0-2-4-|-----------------|-----------------|-----------------|

G|-----------------|-----------------|-----------------|
D|-----------------|-----------------|-----------------|
A|-4-4-4-4-2-2-2---|-4-4-4-4-2-2-----|-----------------|
E|-----------------|-------------4-2-|-0---------------|

SONG PATH
Intro
Verse
Chorus
Verse
Chorus
Bridge
Verse 3
Outro

As far as I can tell this is exactly how they play it on the CD. It's really
quite an easy song to play once you get the hang of it. E-mail me with any
comments or corrections at Bech@Lycosemail.com. Enjoy! =)

Copyrights
Author: ?
Composer: ?
Publisher: ?
More details
Language: English

Reactions

CommonCrawl [Bot]

Follow Muzikum