Sugar Ray
Every Mourning (Bass tab)

Song: Every Mourning
Artist: Sugar Ray
Ablum: 14:59

Standard Bass Tuning

No base for the intro

Main Riff(as well as the rest of the song):

G-------------------------
D------------------6------
A---3--6--4--4--4-----6---
E-4-----------------------

".....ooooohh oooooohh oooooohh....."


G-----------------------------------------
D----------------6------------------------
A----3--------------3--4--4--0--4--4--4---
E-4-----4--4--4---------------------------


"She always rights the..."
G-------------------------------------------------------
D-------------------------------------------------------
A-4-4-4-4-4-4-4-4-6-6-6-6-6-6-6-6-6-3-3-3-3-3-3-3-3-3-3-
E------------------------------------------------------


It would be a little hard to get into timing of the song in the beginning.
Just keep listening to the song to get it.Thats what I did.

Copyrights
Author: ?
Composer: ?
Publisher: ?
More details
Language: English

Reactions

CommonCrawl [Bot]

Follow Muzikum