Sugar Ray
Answer The Phone Ver 4 (Guitar tab)

Song:Answer The Phone
Artist: Sugar Ray
Tab by: KJ
Comments: This is a clean tab and I did it all by myself. I played this whole riff in one of our gigs. I would like to dedicate this song to all the lycsweb fellas especially to STOCKTON, lyle, yekyek, Golda and the rest of the rest...Rasta!


Intro:
G
|-----------3--------3-------3---------3--------3--------3--------3--------3-----|
|--------3--------3--------3--------3--------3--------3--------3--------3--------|
|-----0--------0--------2--------2--------4--------4--------5--------5-----------|
|--------------------------------------------------------------------------------|
|--------------------------------------------------------------------------------|
|--------------------------------------------------------------------------------|

(Distorted)
G D Em C
|--------------------------------------------------------|
|--------------------------------------------------------|
|--------------------------------------------------------|
|-----------------7--7--7--7--9--9--9--9--5--5--5--5-----|
|-----5--5--5--5--5--5--5--5--7--7--7--7--3--3--3--3-----|
|-----3--3--3--3-----------------------------------------|

Verses, Chorus & Coda:
G D Em C
|--------------------------------------------------------|
|--------------------------------------------------------|
|--------------------------------------------------------|
|-----------------7--7--7--7--9--9--9--9--5--5--5--5-----|
|-----5--5--5--5--5--5--5--5--7--7--7--7--3--3--3--3-----|
|-----3--3--3--3-----------------------------------------|

Bridge:
(I practice all my lies...)
F G C Am
|--------------------------------|
|--------------------------------|
|--------------------------------|
|-----------------5--5-----------|
|-----3--3--5--5--3--3--7--7-----|

Copyrights
Author: ?
Composer: ?
Publisher: ?
More details
Language: English

Reactions

CommonCrawl [Bot]

Follow Muzikum