Sugar Ray
Someday Ver 4 (Guitar tab)

Author/Artist: Sugar Ray
Title: Someday
Album: 14:59
Transcribed by: Rodney Buenaflor
Email: Sidrabene41@hotmail.com

This is just one of my favorites, and I'll be doing "Every Morning" next time.
This is a bit simplified, so if you have any questions or comments just E-mail
me. Also, listening to the song will help.

Standard Tuning: E A D G B e

---------------|------------------------------|-----------2--0--------------|-
---------------|--0--------0-------------0----|--------2---------4h5/2---0--|-
---------------|-----1-------------1----------|-----2-----------------------|-
---------------|--------2-------------2-------|--4--------------------------|-
---------------|------------------------------|-----------------------------|-
---------------|------------------------------|-----------------------------|-
Someday when my life has passed me by,

-------------------|--2------------------------|---------------------|--------
-------------------|--2------------------------|---------------------|--------
----1--------------|--2------------------------|-1-------------------|--------
------2------------|----4----------------------|---2-----------------|--------
------2------------|----4----------------------|---2-----------------|--------
-------------------|--2------------------------|---------------------|--------
I'll lay around and wonder why you were always there

-|--2------------------------|------------------------------|--2--------------
-|--2------------------------|------------------------------|--2--------------
-|--2------------------------|---1--------------------------|--2--------------
-|----4----------------------|-----2------------------------|----4------------
-|----4----------------------|-----2------------------------|----4------------
-|--2------------------------|------------------------------|--2--------------
for me. One way,

--------|-------------------|---2----------|--------------------------------|-
--------|-------------------|---2----------|--------------------------------|-
--------|--1----------------|---2----------|----1---------------------------|-
--------|----2--------------|-----4--------|------2-------------------------|-
--------|----2--------------|-----4--------|------2-------------------------|-
--------|-------------------|---2----------|----------------------------------
in the eyes of a passer by I'll look

-|--------------------------------|--------------------|----------------------
-|--------------------------------|--------------------|----------------------
-|----2---------------------------|-1------------------|---2------------------
-|----2---------------------------|---2----------------|---2------------------
-|x-------------------------------|---2----------------|x---------------------
-|x-------------------------------|--------------------|x---------------------
around for another try and fade a - way.

---------------|------------------|------------------------|----------------|-
---------------|--1---------------|------------------------|--1-------------|-
---------------|----2-------------|---2--------------------|----2-----------|-
---------------|----2-------------|---2--------------------|----2-----------|-
---------------|------------------|x-----------------------|----------------|-
---------------|------------------|x-----------------------|----------------|-
Just close your eyes and I'll take you there

-|---------|---5-------------------------------------------|--4-------------|-
-|---------|---5-------------------------------------------|--4-------------|-
-|--2------|----6------------------------------------------|--4-------------|-
-|--2------|-----7-----------------------------------------|----6-----------|-
-|x--------|-----7-----------------------------------------|----6-----------|-
-|x--------|---5-------------------------------------------|--4-------------|-
This place is warm with out a care We'll take a

-|--5-------------------------------|--4--------------|--5--------------------
-|--5-------------------------------|--4--------------|--5--------------------
-|---6------------------------------|--4--------------|---6-------------------
-|----7-----------------------------|----6------------|----7------------------
-|----7-----------------------------|----6------------|----7------------------
-|--5-------------------------------|--4--------------|--5--------------------
swim in the deep blue sea. I go to leave as you

------------------|--4------------------|--2----------------------------------
------------------|--4------------------|--2----------------------------------
------------------|--4------------------|--2----------------------------------
------------------|----6----------------|----4--------------------------------
------------------|----6----------------|----4--------------------------------
------------------|--4------------------|--2----------------------------------
reach for me.

-|--------------|--------------|----------------------------------------------
-|---4----------|---4----------|----------------------------------------------
-|---4----------|---4----------|----------------------------------------------
-|---4----------|---4----------|----------------------------------------------
-|-2------------|-2------------|----------------------------------------------
-|--------------|--------------|----------------------------------------------
So far, and so long. So far away.

-----------------|--2-----------|-----------------|--2--------------|---------
-----------------|--2-----------|--4--------------|--2--------------|---------
--1--------------|--2-----------|--4--------------|--2--------------|---------
----2------------|----4---------|----6------------|----4------------|---------
----2------------|----4---------|-----7-----------|----4------------|---------
-----------------|--2-----------|-----------------|--2--------------|---------
So far, so wrong. So far away, away, away.

-|-------------|--2------------|-------------------|--2------------------|----
-|-------------|--2------------|-------------------|--2------------------|----
-|-1-----------|--2------------|--1----------------|--2------------------|----
-|--2----------|----4----------|---2---------------|----4----------------|----
-|--2----------|----4----------|---2---------------|----4----------------|----
-|-------------|--2------------|-------------------|--2------------------|----
(That's it!, just start from the beggining with a different lyric.)

Copyrights
Author: ?
Composer: ?
Publisher: ?
More details
Language: English

Reactions

CommonCrawl [Bot]

Follow Muzikum