Sugar Ray
Every Morning Ver 4 (Guitar tab)

Artist: Sugar Ray
Song: Every Morning
All Strings Tune Down 1/2 step
or 1 fret lower



Intro:

e---------------------------------|------------------------|----------------|
b---------------------------------|------------------------|---/5--5--5--5--|
g-------/9--9--11--9--11--9----7--|-9--7--9--7----6--7--6--|---/6--6--6--6--|
d-------/9--9--9---9--9---9----9--|-7--7--7--7----6--7--7--|----------------|
a---------------------------------|------------------------|----------------|
E---------------------------------|------------------------|----------------|

e---------------------------------|
b--5^7----------------------------|
g----6-----9h7\6------------------|
d---------------------------------|
a---------------------------------|
E---------------------------------|



Verse 1:

E A E D E A

Every morning there's a ha-lo hanging from the corner of my

E D E A E D

girlfriend's four post bed. I know it's not mine, but I'll

E A E D

see if i can use it for the weekend or a one-nite stand.

E E/A D2 E/A D2 E/A

Could-n't understand how to work it out. Once a-gain,

D2 E/A D2

as predicted left my broken heart open and you ripped it out.


Pre-Chorus:

A E D1 E A E

Some-thing's got me reel-ing, don't stop me from believing, turn me around

D1 A E D E

a-gain. Said that we can do it, you know i want to do it a-gain.

Chords: E x7999x

A 577655

D1 x5777x

D2 xxo11;10;10


Thats it for now, Enjoy!!!

Copyrights
Author: ?
Composer: ?
Publisher: ?
More details
Language: English

Reactions

CommonCrawl [Bot]

Follow Muzikum