Judas Priest
Tyrant (Guitar tab)

Band: Judas Priest
Album: Sad Wings Of Destiny
Song: Tyrant

Copyright (c) CBS (1976)
Version 1.0 - (31/01/05)

Transcribed By: Steve
Email: stephen.elvidge1@ntlworld.com


Intro / main riff

h h h
E---------------------------------------------------
B---------------------------------------------------
G------------------------7--0-2-2-2-4--4-4----------
D---------4-4---4-----4--7--0-2-2-2-4--4-4----------
A---------4-4---4-----2--5--0---0-0-2--2-2----4-----
E------0--2-2-0-2--------------------------0--1-----

Verse riff

h[--------PM------------] h [----PM----]
E-----------------------------------------------
B-----------------------------------------------
G-----------------------------------------------
D---4---------------------------4---------------
A---4---------------------------4---------------
E-0-2-2-2-2-2-2-2-2-2-2-2-2-2-0-2-2-2-2-2-2-2---


E------------------
B------------------
G------------------
D------------------
A-------2-3-4------
E--2--5--------0---Rpt verse riff


Fill at end of verse

E------------------
B------------------
G---------------2--
D-------------2----
A-------2-3-4------
E--2--5------------




Chorus
E-------------------------------------------
B-------------------------------------------
G------------7----6--------------7----4---6-
D--4----2----7----6----4----2----7----4---6-
A--4----2----5----4----4----2----5----2---4-
E--2----0--------------2----0---------------

Lead lick at end of chorus
E----------------------------
B----------------------------
G--6-4------4----------------
D------7-6----7-6--7-6-4-6---
A----------------------------
E----------------------------

Rpt main riff
Rpt verse
Rpt chorus
h
E---------------------------------------------------------
B---------------------------------------------------------
G--------------------------5p0------------------------7---
D---7p0---5p0---7p0---5p0------5--7----7p0---5p0--5---7---
A-0-----0-----0-----0----------------0-----0------5---5---
E-------------------------------------------------3-------
h
E--------------------------------------------------------------------------
B--------------------------------------------------------------------------
G--------------------------5p0---------------------------------------------
D---7p0---5p0---7p0---5p0------5-7---7p0---5p0---4p0--5p0------------------
A-0-----0-----0-----0--------------0-----0-----0-----0-----5-6-7----5-4-3--
E--------------------------------------------------------------------------

Interlude chorus
E------------------------------------------------------------
B------------------------------------------------------------
G--4-----------7-----2-----4---------------------------------
D--4-----5-----7-----2-----4-----5-----7-----4-----5-----4---
A--2-----5-----5-----0-----2-----5-----7-----4-----5-----4---
E--------3-----------------------3-----5-----2-----3-----2---

Intro riff for guitar solo
E----------------------------
B----------------------------
G---------------4-4-4-4-4-4--
D--2-2-2-2-2-2--4-4-4-4-4-4--
A--2-2-2-2-2-2--2-2-2-2-2-2--
E--0-0-0-0-0-0---------------

Backing for guitar solo

E-------------------------
B-------------------------
G--7/9--9--7--9--9--7--9--
D--7/9--9--7--9--9--5--7--
A--5/7--7--5--7--7--------
E------------------------- Rpt 3 X

E-------------------------
B-------------------------
G-------------------------
D--5/7--7--5--7--7--5--7--
A--5/7--7--5--7--7--3--5--
E--3/5--5--3--5--5-------- Rpt 4 X

E-------------------------
B-------------------------
G--7/9--9--7--9--9--7--9--
D--7/9--9--7--9--9--5--7--
A--5/7--7--5--7--7--------
E------------------------- Rpt 4 X


End of guitar solo
E---------------------
B---------------------
G---------------------
D----4-3--------------
A-2-----------5---4\-- Trem dive
E--------1-2----------

Rpt verse
Rpt chorus

h [--PM--] h h[--PM--] h h[----PM----] h h h
E-------------------------------------------------------------------
B-------------------------------------------------------------------
G-----------------------------------4-------------------------------
D---4-----------4---4---------------4-------------------------------
A---4-----------4---4---------2p0-0-2-2-2-2-2-2-2--2p0---0-2p0------
E-0-2-2-2-2-2-0-2p0-2-2-2-2-2--------------------------3-------3p2--



E---------------------------------------
B---------------------------------------
G-2------7-----6---6---6---6---6---6----
D-2------7-----6---6---6---6---6---6----
A-0------5-----4---4---4---4---4---4----
E---------------------------------------

Backing for 2nd guitar solo
h [---PM--]
E------------------
B------------------
G------------------
D-2-4--4-4-4-4-4---
A-2-2--2-2-2-2-2---
E------------------ Rpt 8 X


h [---PM--]
E---------------------------
B---------------------------
G-------2-------------------
D-5-----2---2-4--4-4-4-4-4--
A-5-----0---2-2--2-2-2-2-2--
E-3-------------------------


E-----------------------------------------------------
B-----------------------------------------------------
G-------2---------------------------------------------
D-5-----2-------4-----5-----5-------5----------5------
A-5-----0----2-----2-----2------3-------3---4-----4---
E-3---------------------------------------------------


[--PM---] [--PM---] h h h h h h
E---------------------------------------------------------
B---------------------------------------------------------
G---------------------------------------------------------
D---------------------------------------------------------
A---4-4-4-4--4---4-4-4-4-4--4---4---4---4---4---4---4-----
E-0-2-2-2-2--2-0-2-2-2-2-2--2-0-2-0-2-0-2-0-2-0-2-0-2-----

Rpt Interlude chorus
Rpt verse
Rpt chorus, end chorus on E.

Ending
E-------------------------------------------------------
B-------------------------------------------------------
G------7----2----4---------6----------------------------
D-4----7----2----4----2----6----4---4-4-4-4-4-------4\--
A-4----5----0----2----2----4----4---4-4-4-4-4-------4\--
E-2-------------------0---------2---2-2-2-2-2-------2\--

  • Binbags

    Submitted by

    Binbags at Fri 23 Jun, 2006 6:37 am

  • <
Copyrights
Author: ?
Composer: ?
Publisher: ?
More details
Language: English

Reactions

CommonCrawl [Bot]

Follow Muzikum