Chumbawamba

Chumbawamba
Creepy Crawling (Guitar tab)

Song: Creepy Crawling
Artist: Chumbawamba
Album:TUBTHUMPER
Standard Tuning
(listen to the album for strum patterns)

(fig. A)
E--------------------------------------------------------
B--------------------------------------------------------
G--------------------------------------------------------
D--------------------------------------------------------
A------------------------------3----4----2----0----5----4
E----9(slide down)---2-----------------------------------

Chorus:
(fig. B)
E--------------------------------------------------------
B--------------------------------------------------------
G--------------------------------------------------------
D----7--------4--------7-------4-------7-------4-------11
A----7--------4--------7-------4-------7-------4-------11
E----5--------2--------5-------2-------5-------2--------9

Horn Part (tabbed for guitar):
(fig. C)
E-----------------------------------
B----10---10---10---7---5---2
G----------------------------------- (x3)
D-----------------------------------
A-----------------------------------
E-----------------------------------
(fig. D)
E-----------------------------------
B----6 (let ring)-----------------
G-----------------------------------
D-----------------------------------
A-----------------------------------
E-----------------------------------

Here's how to do it:

(fig. A) (x8)

What a wonderful world...

A loose door-jamb, a light left on
The oldest national lottery
Enter Kaleidoscope-Go-Darkly
Come to spoil my party
Smell of feces lingers
Echo of light fingers
Cold comfort blankets
Steeped in creeping anger
(fig. C) (x3)
Flatfoot comes poking
Compounding my misery
Grinding pestle and mortar
Adding insult to injury
If only this, if only that,
If only in my guts -
(fig. D)
See my life before my eyes
Trampled underfoot

(fig. A) (x4)
Creepy Crawling

(fig. B) (x2)
All the creeps go creepy crawling
Same thing every night
How can stealing candy from a baby
Seem alright?

(fig. A) (x4)
What a wonderful world....

Corvino, carrion crow
Sulking in his mobile
Slippery peat-bog eyes
Stick-on smiley smile
Small print like quicksand
Not a wooden leg to stand on
Sinking through my stomach
The ground beneath me gone
(fig. C) (x3)
Free-fall, call Ophelia
Clutching at straw
Mixed with bloody feathers
From scruff of neck of crow
Johnny go! Johnny gone!
Too much drink in your tum-tum-tum
(fig. D)
See this finger, see this thumb -
See this fist and watch it come!

(fig. A) (x4)
Creepy Crawling

(fig. B) (x2)
All the creeps go creepy crawling
Same thing every night
How can stealing candy from a baby
Seem alright?

(fig. A) (x6)
Creepy Crawling

U_Crew

Submitted by U_Crew at Wed 28 Jan, 2004 8:45 pm

Author: ?
Composer: ?
Publisher: Chumbawamba
Published in: 1997
Language: English
Available on: Tubthumper (1997)

Reactions

CommonCrawl [Bot]

Follow Muzikum