Suzanne Vega
Luka (Bass Tab)

Luka


Author: Suzanne Vega






Tab by Francesco 'BMCL' Miceli
For comments, information or insults,

G.Miceli@iol.it


Intro
G||--------11p-10----------|---------------------|--------11p-10----------|
D||--8h-9------------------|---------------------|--8h-9------------------|
A||------------------------|---------------------|------------------------|
E||------------------------|--9------9--9--------|------------------------|



----------------------|----------------------|-----------------------|
----------------------|----------------------|-----------------------|
----------------------|----------------------|-----------------------|
--9------9--9--9------|--7------7--7------7--|--9--9----9----9--9----|



----------------------|-----------------------|
----------------------|-----------------------|
----------------------|-----------------------|
--7------7--7------7--|--9--9----9----9--9----|


Verse

|----------------------|
|*---------------------|
|*---------------------|
|---2------2--------x--|

---------------------|---------------------|----------------------||
---------------------|---------------------|---------------------*||
--4------4--------x--|--2------2--------x--|--4------4--------x--*||
---------------------|---------------------|----------------------||



--------11p-10----------|---------------------|--------11p-10----------|
--8h-9------------------|---------------------|--8h-9------------------|
------------------------|---------------------|------------------------|
------------------------|--9------9--9--------|------------------------|



------------------------|----------------------|-----------------------|
------------------------|----------------------|-----------------------|
------------------------|----------------------|-----------------------|
--9------9--9--9--9--x--|--7------7--7------7--|--9--9----9----9--9----|



----------------------|-----------------------|----------------------|
----------------------|-----------------------|----------------------|
----------------------|-----------------------|----------------------|
--7------7--7------7--|--9--9----9----9--9----|--7------7--7------7--|


---------------------|
---------------------|
---------------------|
--9--7/-9------------|




Quiet part
-------------------|-------------------|
-------------------|-------------------|
-------------------|--4----------------|
--2----------------|-------------------|



-------------------|-------------------|-------------------|-------------------|
-------------------|-------------------|-------------------|-------------------|
--2----------------|--4----------------|-------------------|--4----------------|
-------------------|-------------------|--2----------------|-------------------|



-------------------|-------------------|-------------------|-------------------|
-------------------|-------------------|-------------------|-------------------|
--2----------------|--4----------------|--6----------------|--4----------------|
-------------------|-------------------|-------------------|-------------------|



-------------------|-------------------------|----------------------|
-------------------|-------------------------|----------------------|
--6----------------|--4--4--4--4--4--4--4----|----------------------|
-------------------|-------------------------|--7------7--7------7--|



-----------------------|----------------------|-----------------------|
-----------------------|----------------------|-----------------------|
-----------------------|----------------------|-----------------------|
--9--9----9----9--9----|--7------7--7------7--|--9--9----9----9--9----|



----------------------|---------------------|
----------------------|---------------------|
----------------------|---------------------|
--7------7--7------7--|--9--7/-9------------|



Final variation
----------------------|
----------------------|
--6------6----6----6--|
----------------------|



----------------------|----------------------|----------------------|
----------------------|----------------------|----------------------|
--4------4----4----4--|--2------2----2----2--|--4------4----4----4--|
----------------------|----------------------|----------------------|



-------------------||
--4----------------||
-------------------||
--2----------------||

Copyrights
Author: ?
Composer: ?
Publisher: ?
More details
Language: English

Reactions

CommonCrawl [Bot]

Follow Muzikum