Incubus

Incubus
Zee Deveel (Guitar tab)

zee deveel tab by max

intro

(this part may not be completely correct as its hard to hear properly)

-------------------------
-------------------------
-----4-4-----------------
-----0-0--6-p-5----6-----
-----x-x--4---4-4-4-4----
---3-3-3--4---4----------

pre chorus (chords)

---4---5----4---5---2----
---5---5----5---5---2----
---6---6----6---6---3----
---6---7----6---7---4----
---4---0----4---0--------
-------------------------

chorus (chords) 'you should be careful...'

-----------------------
-----------------------
---1---8---------------
---2---x---7---6-------
---2---6---x---x-------
---0-------5---4-------

solo

----14-14-14-15-14-12-14-14-14-15-14-12---
------------------------------------------
------------------------------------------
--14--------------------------------------
------------------------------------------
------------------------------------------

----------------------------------------19-----
--15-14-12h14-12h14-15-14-12h14-15-14----------
-----------------------------------------------
-----------------------------------------------
--------------------------------------21--21---
-----------------------------------------------

-----------------19-----------19-----
-------------------------------------
--16-15-13h15--16--16-15h16p15-------
------------------------------------- this last part repeats
-------------------------------------
-------------------------------------

the next part is just a noise to me. it might be chris' decks, but if
it's mike's fx pedal i can't figure it out

bit after solo (Chords)

----------------
----------------
---------6------
---5--2--6--6---
---5--2--4--6---
---3--0-----4---

Sqweeky

Submitted by Sqweeky at Thu 29 Jan, 2004 3:09 am

Author: ?
Composer: ?
Publisher: ?
Language: English

Reactions

CommonCrawl [Bot]

Follow Muzikum