Incubus
Azwethinkweiz Ver 2 (Bass tab)

Intro
G -------------------------------------------------------------------------------
D -------------------------------------------------------------------------------
A --7-7-5--7--7-7-5--7--7-7-5--7-----------5--5--7-7-5--7\-9---------------------
E -----------------------------------5--7----------------------------------------
x2
G --------------------------7--x--18--16--------------------------7--------------
D --------------------7--9----------------------------------7--9-----------------
A -----5--7-7-5--7-----------------------------5--7-7-5--7-----------------------
E --7----------------------------------------7-----------------------0--9--7-----


G ----------------------------------------------------7-7--7-7--7-7--7-7---------
D -------------------------------------------------------------------------------
A -----5-------------x-7-5--------------------x-7-5------------------------------
E --7-------7--5--7-----------4-5-6--7--5--7-------------------------------------
+ + + + + + + +

G ----------------------------------------------------7-6-5----------------------
D ----------------------------------------------------------7-6-6-5-5------------
A -----5-------------x-7-5--------------------x-7-5-------------------7-7--------
E --7-------7--5--7-----------4-5-6--7--5--7-------------------------------------



G -------------------------------------------------10-10--10-10--10-10--10-10----
D -----------5-5--5--5--5-------------------7--5---------------------------------
A --7--5--7-----------------4-5-6--7--5--7---------------------------------------
E -------------------------------------------------------------------------------



G -------------------------------------------------------------------------------
D -----------5-5--5--5--5--------------------------------------------------------
A --7--5--7--------------------------------7--5----------------------------------
E ------------------------ 4-5-6--7--5--7---------4-5-6-7------------------------


x3
G -------------------------------------------------------------------------------
D -------------------------------------------------------------------------------
A -------------------------------7-----------------------------------------------
E --9-9---9-9---------9-9--9-9---------------------------------------------------



G -------------------------------------------------------------------------------
D -------------------------------------------------------------------------------
A --5-----5-----5-----5-----5-----5------5---------------------------------------
E -----7-----7-----7-----7-----7-----7-------------------------------------------


x2
G --------------------------7--x--18--16--------------------------7--------------
D --------------------7--9----------------------------------7--9-----------------
A -----5--7-7-5--7-----------------------------5--7-7-5--7-----------------------
E --7----------------------------------------7-----------------------0--9--7-----



G ----------------------------------------------------7-7--7-7--7-7--7-7---------
D -------------------------------------------------------------------------------
A -----5-------------x-7-5--------------------x-7-5------------------------------
E --7-------7--5--7-----------4-5-6--7--5--7-------------------------------------
+ + + + + + + +


G ----------------------------------------------------7-6-5----------------------
D ----------------------------------------------------------7-6-6-5-5------------
A -----5-------------x-7-5--------------------x-7-5-------------------7-7--------
E --7-------7--5--7-----------4-5-6--7--5--7-------------------------------------



G -------------------------------------------------10-10--10-10--10-10--10-10----
D -----------5-5--5--5--5-------------------7--5---------------------------------
A --7--5--7-----------------4-5-6--7--5--7---------------------------------------
E -------------------------------------------------------------------------------



G -------------------------------------------------------------------------------
D -----------5-5--5--5--5--------------------------------------------------------
A --7--5--7--------------------------------7--5----------------------------------
E ------------------------ 4-5-6--7--5--7---------4-5-6-7------------------------


x3
G -------------------------------------------------------------------------------
D -------------------------------------------------------------------------------
A -------------------------------7-----------------------------------------------
E --9-9---9-9---------9-9--9-9---------------------------------------------------



G -------------------------------------------------------------------------------
D -------------------------------------------------------------------------------
A --5-----5-----5-----5-----5-----5------5---------------------------------------
E -----7-----7-----7-----7-----7-----7-------------------------------------------



G --------------------------7--x--18--16--------------------------7--------------
D --------------------7--9----------------------------------7--9-----------------
A -----5--7-7-5--7-----------------------------5--7-7-5--7-----------------------
E --7----------------------------------------7-----------------------0--9--7-----



G --------------------------7--x--18--16-----------------------9--7--------------
D --------------------7--9----------------------------------7--------------------
A -----5--7-7-5--7-----------------------------5--7-7-5--7---------------------5-
E --7----------------------------------------7------------------------9--7--7----



Solo
G -------------------------------------------------------------------------------
D ------6--------6--------6------6-----------------------------------------------
A --4------4-4------4-4-----4-4----------7------7-----7-----6--7-----------------
E -----------------------------------5-----5-5----5-5----5-----------------------


G -------------------------------6-----------------------------------------------
D ------6--------6-----5--6---5--------------------------------------------------
A --4------4-4------4-------4-----------7-------7------7-------------------------
E ----------------------------------5-----5-5-----5-5-----5---9\-----------------

x2
G -------------------------------6-----------------------------------------------
D ------6--------6-----5--6---5--------------------------------------------------
A --4------4-4------4-------4------------7------7-----7------6--7----------------
E -----------------------------------5-----5-5----5-5-----5----------------------


x4
G --------------------------7--x--18--16--------------------------7--------------
D --------------------7--9----------------------------------7--9-----------------
A -----5--7-7-5--7-----------------------------5--7-7-5--7-----------------------
E --7----------------------------------------7-----------------------0--9--7-----



G -------------------------------------------------------------------------------
D -------------------------------------------------------------------------------
A ----7----7-7-5--7--7-7-5--7--7-7-5--7-----------5--5--7-7-5--7\-9--------------
E -5--------------------------------------5--7-----------------------------------

Copyrights
Author: ?
Composer: ?
Publisher: ?

Reactions

CommonCrawl [Bot]

Follow Muzikum