Incubus

Incubus
Medium (Guitar tab)

Artist: Incubus
Album: Fungus Amongus
Song: Medium

Transcribed by: Azwethinkweist_2012
Date: 06-10-2002
E-mail: azwethinkweist_2012@hotmail.com
URL :

Note :
Tuning : Drop-D


LISTEN TO THE CD FOR RHYTHM!!!




[Intro]
e|-9--9--9--9--12--12--9--12--12--9----------------------------------------|
B|-9--9--9--9--12--12--9--12--12--9----------------------------------------|
G|-------------------------------------------------------------------------|
D|-------------------------------------------------------------------------|
A|-------------------------------------------------------------------------|
E|-------------------------------------------------------------------------|


[Verse] I dont know what effect Mikey uses here
e|-9-----x-----9-----x-----9-----x-----9-----x-----------------------------|
B|-9-----x-----9-----x-----9-----x-----9-----x-----------------------------|
G|-9-----x-----9-----x-----9-----x-----9-----x-----------------------------|
D|-------------------------------------------------------------------------|
A|-------------------------------------------------------------------------|
E|-------------------------------------------------------------------------|


[After the 2nd Chorus] This is the heavy part
e|-------------------------------------------------------------------------|
B|-------------------------------------------------------------------------|
G|-------------------------------------------------------------------------|
D|-9--9--9--9--12--12--9--12--12--9----------------------------------------|
A|-9--9--9--9--12--12--9--12--12--9----------------------------------------|
E|-9--9--9--9--12--12--9--12--12--9----------------------------------------|


[Played after the 2nd Chorus] Im not entirely sure if this is 100% correct.
e|-------------------------------------------------------------------------|
B|-------------------------------------------------------------------------|
G|-------------------------------------------------------------------------|
D|-------------------------------------------------------------------------|
A|-------9--7--------------------------------------------------------------|
E|-0--9--------9--9--7--5--5--3--------------------------------------------|



==========================================================================
Tab created with Kastor's Guitar Tabulature Manager 3.0 (TabIt Quick 1.0)
You can get it for FREE from >>www.inet.hr/~kpetak

OptimusPrime

Submitted by OptimusPrime at Sun 01 Dec, 2002 10:45 am

Author: ?
Composer: ?
Publisher: ?
Language: English

Reactions

CommonCrawl [Bot]

Follow Muzikum