Incubus

Incubus
Stellar (Guitar tab)

Date: Sun, 22 Apr 2001 23:08:22 -0400
Subject: i/incubus/stellar.tab

From: "Chase Wilson"
Previously From: "Lesley-Anne O'Brien"

Originally From: "Dan Singelton"


These are just a few corrections I thought needed to
be made on this tab.

Standard tuning

Intro and Verse
(Clean with delay)
e-----------------------------------
B-----------------------------------
G--11-11\13-13b-11b-----------------
D--11-11\13-13b-11b-6-----6-6---6-7-
A-0-------------------4-4-----4-----
E-----------------------------------

e--------------------------------
B--------------------------------
G--11-11\13-13b-11b--------------
D--11-11\13-13b-11b-6-----6-----6
A-0-------------------4-4---4-4--
E--------------------------------

1st Pre Chorus
(Distortion)
e-5-55-5-55-5-55-5-55-7-77-7-77-7-77-7-77
B-5-55-5-55-5-55-5-55-7-77-7-77-7-77-7-77
G-6-66-6-66-6-66-6-66-8-88-8-88-8-88-8-88
D-7-77-7-77-7-77-7-77-9-99-9-99-9-99-9-99
A-7-77-7-77-7-77-7-77-9-99-9-99-9-99-9-99
E-5-55-5-55-5-55-5-55-7-77-7-77-7-77-7-77

Chorus
(Distortion)
e-5-55-5-55--------------
B-5-55-5-55--------------
G-6-66-6-66--------------
D-7-77-7-77-6-6---------7
A-7-77-7-77-----4-4---5--
E-5-55-5-55---------4----

Interlude
(Clean w/delay)
e--------------------------------
B--------------------------------
G---11-11/13-13~-----13-13/11-11~
D---11-11/13-13~-----13-13/11-11~
A-0---------------0--------------
E--------------------------------

2nd Pre Chorus
(Dist.)
e-5-55-5-55-5-55-5-55-7-77-7-77-55777777
B-5-55-5-55-5-55-5-55-7-77-7-77-55777777
G-6-66-6-66-6-66-6-66-8-88-8-88-66888888
D-7-77-7-77-7-77-7-77-9-99-9-99-77999999
A-7-77-7-77-7-77-7-77-9-99-9-99-77999999
E-5-55-5-55-5-55-5-55-7-77-7-77-55777777

Bridge ad lib using these power chords.

e----- e-----
B----- B-----
G--6-- and G-----
D--6-- D--6--
A--4-- A--6--
E----- E--4--

Ending

e-------------------------------------
B-------------------------------------
G-------------------------------------
D--6-6--------7---6-6---------7-----7-
A-4---4-4---5---4-----4-4---5-------7-
E---------4---------------4---------5-

OptimusPrime

Submitted by OptimusPrime at Tue 18 Dec, 2001 1:01 pm

Author: ?
Composer: ?
Publisher: ?
Language: English

Reactions

CommonCrawl [Bot]

Follow Muzikum