Incubus
Favourite Things (Guitar chord)

Date: Thu, 8 Nov 2001 11:28:56 -0800 (PST)
From: Human Vibe Technician
Subject: i/incubus/favourite_things.crd

Artist:Incubus
Song:Favourite Things
Album:S.C.I.E.N.C.E
tabbed by:pid_182@yahoo.co.uk (tom piddock)


Intro
E-----------------------------
B-----------------------------
G-----------------------------
D----------------8-777---55555
A----------------8-777---55555
D--7-0-0-7-8-0-0-8-777---55555
p.m--------

E-------------------------------
B-------------------------------
G-------------------------------
D----------------8-7/8-888---555
A----------------8-7/8-888---555
D--7-0-0-7-8-0-0-8-7/8-888---555
p.m------

verse is same simply dont play the power chords.

pre-Chorus:
E--------------------
B--------------------
G--------------------
D--7777799--888881010
A--7777777--888881010
D--7777777--8888888--
p.m----------------

that looks strange but play the notes and figure out
the rythym.

Post Chorus:
E-----------------------------
B-----------------------------
G-----------------------------
D--7-77-7-15-1515-15-7-7-8-8-7
A--7-77-7-15-1515-15-7-7-8-8-7
D--7-77-7-15-1515-15-7-7-8-8-7


could change the 15 there to a 3.depends on sound
quality.

Breakdown:
D--0--8--7--3
A--0--8--7--3
D--0--8--7--3

and..........that should be it.any questions then mail
me.i have probably tabbed this wrong so hey,tell me.

Copyrights
Author: ?
Composer: ?
Publisher: ?
More details
Language: English

Reactions

CommonCrawl [Bot]

Follow Muzikum