Incubus
Out From Under (Guitar tab)

From: TwaNSk8brd@aol.com
Date: Sat, 4 Aug 2001 12:37:20 EDT
Subject: i/incubus/out_from_under.tab

Incubus (out from under)
From:Tony Terneson (twansk8brd@aol.com, Deftwan199@aol.com



E|-------------------------------------------------------------
B|-------------------------------------------------------------
D|-------------------------------------------------------------
G|-4444-2/5-5-4444-2/5-5-4444-2/5-5-55xx55xx--xx---------------
A|-2020-0/3-3-2020-0/3-3-2020-0/3-3-33xx33xx55xx55-------------
E|------------------------------------xx--xx33xx33-------------


E|--------------------------------------------------------------
B|--------------------------------------------------------------
D|--------------------------------------------------------------
G|-4444-2/-5-5-4444-2/555-4444-2/5-5-4444-2222------------------
A|-2020-0/-3-3-2020-0/333-2020-0/3-3-2222-0000-5555-3333--------
E|---------------------------------------------3333-1111--------
flanger w/delay
E|-----------------------------------------------------------
B|-----------------------------------------------------------
D|--7h9-99~-0r-7h9-99~-0-2----7h9-99~-0r-7h9-99~-0-2---------
G|-----------------------------------------------------------
A|-----------------------------------------------------------
E|-----------------------------------------------------------

E|-----------------------------------------------------------
B|-----------------------------------------------------------
D|-----------------------------------------------------------
G|-----------------------------------------------------------
A|----12-12\88-7-5*5*-12-12\88---232333-2/101010-888---------
E|--0-10-10\66-5-5*5*-10-10\66---010111-0-8-8-8--666---------repeat 4 times


E|-----------------------------------------------------------
B|-----------------------------------------------------------
D|--7h9-99~-0-2-7h9-99~--0-2---7h9-99~-0r-7h9-99~-0-2--------
G|-----------------------------------------------------------
A|-----------------------------------------------------------

E|-----------------------------------------------------------
B|-----------------------------------------------------------
D|-----------------------------------------------------------
G|-----------------------------------------------------------
A|----12-12\88-7-5*5*-12-12\88-7--232333-2/101010-888--------
E|--0-10-10\66-5-5*5*-10-10\66-5--010111-0-8-8-8--666--------



phaser+flanger/w delay Super Phaser
E|-----------------------------------------------------------
B|-----------------------------------------------------------
D|--7h9~-9-9-7h9~-9-9--7h9~~7h9~~--9^^-----------------------
G|-----------------------------------------------------------
A|-----------------------------------------------------------
E|-----------------------------------------------------------
resist...

E|-------------------------------------------------------------
B|-------------------------------------------------------------
D|-------------------------------------------------------------
G|-4444-2/5-5-4444-2/5-5-4444-2/5-5-55xx55xx--xx---------------
A|-2020-0/3-3-2020-0/3-3-2020-0/3-3-33xx33xx55xx55-------------
E|------------------------------------xx--xx33xx33-------------

E|------------------------------------------------------------------------
B|------------------------------------------------------------------------
D|------------------------------------------------------------------------
G|-4444-2/-5-5-4444-2/555-4444-2/5-5-4444-2222----------------------------
A|-2020-0/-3-3-2020-0/333-2020-0/3-3-2222-0000-5555-3333232333/101010-888-
E|---------------------------------------------3333-1111010111--8-8-8-666-

E|-----------------------------------------------------------
B|-----------------------------------------------------------
D|-----------------------------------------------------------
G|-----------------------------------------------------------
A|----12-12\88-7-5*5*-12-12\88-7--232333-2/101010-888--------
E|--0-10-10\66-5-5*5*-10-10\66-5--010111-0-8-8-8--666--------

E|--------------------------------------------------------------
B|--------------------------------------------------------------
D|--------------------------------------------------------------
G|-4444-2/-5-5-4444-2/5-5-4444-2/5-5-4444-2222------------------
A|-2020-0/-3-3-2020-0/3-3-2020-0/3-3-2222-0000-5555-3333--------
E|---------------------------------------------3333-1111--------

Copyrights
Author: ?
Composer: ?
Publisher: ?
More details
Language: English

Reactions

CommonCrawl [Bot]

Follow Muzikum