The Fun Lovin' Criminals

The Fun Lovin' Criminals
Scooby Snacks (Bass tab)

FUN LOVIN' CRIMINALS

Come find yourself - album

Tabbed by: Fjon (fjonklein@excite.com)


Nearly of the bass lines on this album are really short riffs, so I
decided I might as well tab the whole album. Most of the stuff is very
easy and fun to play. I have no idea if its played on a bass, or on a
keyboard, but I know that when they play live, the keyboard player
plays the bass on a pedal operated keyboard. A lot of the songs here
are played on a five dtring, so I'll writreout for four string as well-
it won't sound the same, though!

Scooby Snacks

Chorus Verse
G|-----------------|-----------------||-----------------|
D|-----------------|-----------------||-----------------|
A|-----------------|-----------------||-----------------|
E|---------5-5-5-5-|---------3-3-3-3-||---------5-5-5-5-|
B|-3-3-3-3---------|-1-1-1-1---------||-3-3-3-3---------|

Four string version:

G|-----------------|-----------------||-----------------|
D|---------7-7-7-7-|---------5-5-5-5-||---------7-7-7-7-|
A|-5-5-5-5---------|-3-3-3-3---------||-5-5-5-5---------|
E|-----------------|-----------------||-----------------|

OptimusPrime

Submitted by OptimusPrime at Sun 01 Dec, 2002 9:48 am

Author: ?
Composer: ?
Publisher: ?
Language: English

Reactions

CommonCrawl [Bot]

Follow Muzikum