The Black Crowes

The Black Crowes
Sting Me Ver 2 (Guitar tab)

Author/Artist: Black Crowes
Title: Sting Me
Album: Southern Harmony & Musical Companion
Transcribed by: dr. krakpot
Email: evanh@remotepoint.com

This is just a better way to play the opening part.

r=rest

--------------------------|------------------------------|--------------------
-------3p0--6h5--0--5--0--|--0--------3p0--6h5--0--5-0---|--------------------
----0--3p0--6h5--0--5--0--|--0-----0--3p0--6h5--0--5-0---|--------------------
-3-----3p0--6h5--0--5--0--|--0--3-----3p0--6h5--0--5-0---|--------------------
--------------------------|------------------------------|--------------------
--------------------------|------------------------------|--------------------
It starts out like this then goes into this. Just keep repeating.

-----3---------3------------------------------------------------------|-------
-5b-----r--5b-----5-5h3-----------------1--------1--------------------|-------
------------------5-5h3--------------0--------0-----------------------|-------
-------------------------5--5--r--3--------2--------------------------|-------
----------------------------------------------------1-----1-----1-----|-------
-------------------------------------------------------3-----3-----3v-|-------
Then the main part goes like this.

OptimusPrime

Submitted by OptimusPrime at Sun 01 Dec, 2002 8:41 am

Author: ?
Composer: ?
Publisher: ?
Language: English

Reactions

CommonCrawl [Bot]

Follow Muzikum