The Black Crowes

The Black Crowes
Bad Luck Blue Eyes Goodbye (Guitar tab)

Author/Artist: Black Crowes
Title: Bad Luck Blue Eyes Goodbye
Album: SHMC
Transcribed by: Mike Wright
Email: Mikw0@aol.com

This is my first tab transcribtion, so bare with me here.
The intro/verses are pretty much [D] [A] [Asus4] [A].
I finally gave up at the end and just wrote down the lyrics,
they're are sung over the verse pattern. Listen to the
album for the strum pattern and remember... "B and B
with a little weed." -Chris Robinson

-2----0----0----0-|-2----0----0----0-|----------------------------------------
-3----2----3----2-|-3----2----3----2-|----------------------------------------
-2----2----2----2-|-2----2----2----2-|----------------------------------------
-0----2----2----2-|-0----2----2----2-|----------------------------------------
------0----0----0-|------0----0----0-|----------------------------------------
------------------|------------------|----------------------------------------
This is the Intro play 2x

---------2-------------------------------0-----0--0--0------------------------
---------3-------------------------------2-----3--3p-2------------------------
---------2-------------------------------2-----2--2--2------------------------
---------0-------------------------------2-----2--2--2------------------------
-----------------------------------------0-----0--0--0------------------------
------------------------------------------------------------------------------
With my winter time, my idols and stage fright

----2--------------------------------------------0-----0--0--0----------------
----3--------------------------------------------2-----3--3p-2----------------
----2--------------------------------------------2-----2--2--2----------------
----0--------------------------------------------2-----2--2--2----------------
-------------------------------------------------0-----0--0--0----------------
------------------------------------------------------------------------------
In another night, where the lights are loud and bright

--------------------------2-----3--3p-2---------------------------------------
-0------------------------3-----3--3--3---------------------------------------
-1------------------------2-----2--2--2---------------------------------------
-2------------------------0-----0--0--0---------------------------------------
-2----------------------------------------------------------------------------
-0----------------------------------------------------------------------------
One dream from waking up saved

------------------------2----0------------------------------------------------
-0----------------------4----2------------------------------------------------
-1----------------------4----2------------------------------------------------
-2----------------------4----2------------------------------------------------
-2----------------------2----0------------------------------------------------
-0----------------------2-----------------------------------------------------
Too shy to hold in the rage

---2-----------------------------------------0----0--0--0---------------------
---3-----------------------------------------2----3--3p-2---------------------
---2-----------------------------------------2----2--2--2---------------------
---0-----------------------------------------2----2--2--2---------------------
---------------------------------------------0----0--0--0---------------------
------------------------------------------------------------------------------
I know no luxury, of knowing what your eyes read

--------2--------------------------------------------------0----0--0--0-|-----
--------3--------------------------------------------------2----3--3p-2-|-----
--------2--------------------------------------------------2----2--2--2-|-----
--------0--------------------------------------------------2----2--2--2-|-----
-----------------------------------------------------------0----0--0--0-|-----
------------------------------------------------------------------------|-----
I know one million ways to always pick the wrong thing to say

-----------------------2----3--3p-2------------------------2---|--------------
-----------------------3----3--3--3------------------------4---|--------------
-1---------------------2----2--2--2---1--------------------4---|--------------
-2---------------------0----0--0--0---2--------------------4---|--------------
-2------------------------------------2--------------------2---|--------------
-0------------------------------------0--------------------2---|--------------
A love that you never gave, Always one time zone away

----------0------------------------------0-----|--------------0----|----------
----------2------------------------------2-----|--------------2----|----------
----------2------------------------------2-----|--------------2----|----------
----------2------------------------------2-----|--------------2----|----------
----------0------------------------------0-----|--------------0----|----------
-----------------------------------------------|-------------------|----------
It's not out of spite, I just know whats right So that's why

-0---0----0----0--------2-----------------------------------------------------
-2---2----2----2--------3-----------------------------------------------------
-2---2----2----2--------2-----------------------------------------------------
-2---2----2----2--------0-----------------------------------------------------
-0---0----0----0--------------------------------------------------------------
------------------------------------------------------------------------------
Bad luck blue eyes goodbye

-------------2----------------------------------0------0---0--0-|-------------
-------------3----------------------------------2------3---3p-2-|-------------
-------------2----------------------------------2------2---2--2-|-------------
-------------0----------------------------------2------2---2--2-|-------------
------------------------------------------------0------0---0--0-|-------------
----------------------------------------------------------------|-------------
Sometimes a memory, Only sees what it wants to believe

----------------------2-------------------------------------------------------
----------------------3-------------------------------------------------------
----------------------2-------------------------------------------------------
----------------------0-------------------------------------------------------
------------------------------------------------------------------------------
------------------------------------------------------------------------------
And what's filled in between, Are days and nights that don't

--------0-----0---0--0-|------------------------------------------------------
--------2-----3---3p-2-|------------------------------------------------------
--------2-----2---2--2-|------------------------------------------------------
--------2-----2---2--2-|------------------------------------------------------
--------0-----0---0--0-|------------------------------------------------------
-----------------------|------------------------------------------------------
mean a thing

----------------2-----3---3p-2-------------------------2-----3---3p-2---------
----------------3-----3---3--3-------------------------3-----3---3--3---------
-1--------------2-----2---2--2---1---------------------2-----2---2--2---------
-2--------------0-----0---0--0---2---------------------0-----0---0--0---------
-2-------------------------------2--------------------------------------------
-0-------------------------------0--------------------------------------------
Such a simple suicide A second chance never tried

------------------2-----------------------------|-----------------------------
------------------3-----------------------------|-----------------------------
-1----------------2-----------------------------|-----------------------------
-2----------------0-----------------------------|-----------------------------
-2----------------------------------------------|-----------------------------
-0----------------------------------------------|-----------------------------
And you don't understand, I need a helping hand

------------------------------------------------------------------------------
------------------------------------------------------------------------------
------------------------------------------------------------------------------
------------------------------------------------------------------------------
------------------------------------------------------------------------------
------------------------------------------------------------------------------
So you think that you've seen it all is that a fact? So out your mouth a

------------------------------------------------------------------------------
------------------------------------------------------------------------------
------------------------------------------------------------------------------
------------------------------------------------------------------------------
------------------------------------------------------------------------------
------------------------------------------------------------------------------
dictionary spouts about this and that you got your do's, your don'ts

------------------------------------------------------------------------------
------------------------------------------------------------------------------
------------------------------------------------------------------------------
------------------------------------------------------------------------------
------------------------------------------------------------------------------
------------------------------------------------------------------------------
because and why I don't trust no one who take their own advise.

OptimusPrime

Submitted by OptimusPrime at Sun 01 Dec, 2002 8:41 am

Author: ?
Composer: ?
Publisher: ?
Language: English

Reactions

CommonCrawl [Bot]

Follow Muzikum