The Black Crowes

The Black Crowes
Kickin My Heart Around (Guitar tab)

Artist:Black Crowes
Song:Kickin' My Heart Around
Tabbed By:Tom o' Loughlin+July Collins
ashleehouse@tinet.ie
Tuning:Open G:DGDGBD
Intro w/slide

slow slide lr.... lr.........
D---------------------------------------------
B-----------7/////12--------12-------12---12--
G-----------7/////12------12-------12---------
D-----------7/////12----12-------12-----------
G-----------7/////12--------------------------
D---------------------------------------------

D---------------------------------------------
B---------7--7---7--8/7-----------------------
G--4/5-0---------------7--7--7/0--5/4-0-5/4-0-
D--4/5-0--------------------------5/4-0-5/4-0-
G---------------------------------------------
D---------------------------------------------

lr.............
D-----------------------------------7--7----7-------0--------
B----------------------------5/7--7--7--7--7--7--7/8---8/7---
G-------------0----0-4/5--0--5/7----------------------0------
D--0--3p0-------0h3--4/5--0----------------------------------
G---------3p0------------------------------------------------
D------------------------------------------------------------
lr......
D--------------------------------------------
B-------------------------------0--------0--0
G--7/4--5/4-0-5/4-0-------------------0--0--0
D-------5/4-0-5/4-0--0-3p0----------0--------
G--------------------------3p0----0----------
D--------------------------------------------

Riff that kicks in and is played again and again
w/o slide *rhythm guitar*
My girlfriend figuired this part out 'cos I was too lazy!
D-------------------------------------
B--3/5/3------------------------------
G*--------0--------0-----0--0----0--0-*
D*-3/5/3-2----0-----------------0---0-*4 TIMES
G-----------------4--0--5--5--0-------
D-------------------------------------

LEGEND:

/=SLIDE UP OR DOWN TO NOTE
w/slide=play notation with a steel or glass slide
w/o slide=play notation without slide
h=hammer on
p=pull off
lr...=let notes notated ring out

OptimusPrime

Submitted by OptimusPrime at Mon 19 Nov, 2001 2:07 am

Author: ?
Composer: ?
Publisher: ?
Language: English

Reactions

CommonCrawl [Bot]

Follow Muzikum