EMF

EMF
Unbelievable (Bass tab)

Unbelievable
by EMF
Tabbed by Beelzebob (blzbob@hotmail.com)

Tuning: Eb,Ab,Db,Gb

Intro: 2 times
Gb|------------------|
Db|------------------|
Ab|-0-------5---7----|
Eb|------------------|

First Verse: 5 times
Gb|-------------------------------|
Db|-------------------------------|
Ab|----------------5--3-5-r-------|
Eb|-5--3-5-5-0-2-3----------0-2-3-|

Gb|-------------------|
Db|-------------------|
Ab|---------------5---|
Eb|-5--3-5--0-2-3-----|

First Chorus:
Gb|-----------------------------------------------------------|
Db|-----------------------------------------------------------|
Ab|--------303-03-3-4-5-5-5-303-----------303-4-5-5-5-5-303---|
Eb|-5--3-5----------------------6-6-5-5-5-------------------6-|

Second Verse: 5 times
Gb|-------------------------------|
Db|-------------------------------|
Ab|----------------5--3-5-r-------|
Eb|-5--3-5-5-0-2-3----------0-2-3-|

Gb|-------------------|
Db|-------------------|
Ab|---------------5---|
Eb|-5--3-5--0-2-3-----|

Second Chorus:
Gb|-------------------------------------------------------------|
Db|-------------------------------------------------------------|
Ab|--------303-03-3-4-5-5-5-303-----------303-4-5-5-5-5-303-----|
Eb|-5--3-5----------------------6-6-5-5-5-------------------6-6-|

Gb|-------------------------------------------------------|
Db|-------------------------------------------------------|
Ab|-------303-4-5-5-5-5-303-----------303-4-5-5-5-5-303---|
Eb|-5-5-5-------------------6-6-5-5-5-------------------6-|

Rap Break (Rest one bar):
Gb|-----------------------------------------------------------|
Db|-----------------------------------------------------------|
Ab|--------303-03-3-4-5-5-5-303-----------303-4-5-5-5-5-303---|
Eb|-5--3-5----------------------6-6-5-5-5-------------------6-|

Third Verse: 7 times
Gb|-------------------------------|
Db|-------------------------------|
Ab|----------------5--3-5-r-------|
Eb|-5--3-5-5-0-2-3----------0-2-3-|

Gb|-------------------|
Db|-------------------|
Ab|---------------5---|
Eb|-5--3-5--0-2-3-----|

Third Chorus:
Gb|---------------------------------------------------|
Db|---------------------------------------------------|
Ab|--------303-03-3-4-5-5-5-303-----------303-4-5-r---|
Eb|-5--3-5----------------------6-6-5-5-5-------------|

Gb|---------------------------------------------------|
Db|---------------------------------------------------|
Ab|--------303-03-3-4-5-5-5-303-----------303-4-5-r---|
Eb|-5--3-5----------------------6-6-5-5-5-------------|

Guitar Solo: Repeat 6 times
Gb|---------------------------------|-------------------------------|
Db|---------------------------------|*-----------------------------*|
Ab|--------303-03-3-4-5-5-5-303-----|*-------303-4-5-5-5-5-303-----*|
Eb|-5--3-5----------------------6-6-|--5-5-5-------------------6-6--|

End:
Gb|-------------------|
Db|-------------------|
Ab|-------303-4-5-r---|
Eb|-5-5-5-------------|

OptimusPrime

Submitted by OptimusPrime at Sun 01 Dec, 2002 9:43 am

Author: ?
Composer: ?
Publisher: ?
Language: English

Reactions

CommonCrawl [Bot]

Follow Muzikum