Tool
H Redone (Guitar tab)

Band: Tool
Song: H (Heroin)
Album: �nima
Tabber: Sagar Nadgir (ParabolaSk8_01@comcast.net)
Info: This is basically a compilation of several tabs for H. by Tool, except
just put together what I thought sounded correct. Please email corrections
to the email above.
Tuning: Dropped D (D A D G B E)


Intro: Distorted bass, but this is it for guitar.
e)------------------------------------------------------------------------
b)------------------------------------------------------------------------
g)------------------------------------------------------------------------
d)-----7----------7----------------7-----------7--------------------------
a)--------8----------8--8s10----------8-----------8--8s10-5b--------------
d)--0----------0-----------------0-----------0----------------------------

e)------------------------------------------------------------------------
b)--3---------------------------------------------------------------------
g)--2---------------------------------------------------------------------
d)--0--7-------------7-----------------7-------------7--------------------
a)--0-----8--------------8--8s10-------------8-----------8--8s10----------
d)--0------------0------------------0--------------0----------------------

e)------------------------------------------------------------------------
b)--3-------------------------------------3-----------15---------------
g)--2-------------------------------------2-----------14---------------
d)--0--7-------------7----------------x-x-0--7--------0--7----------------
a)--0-----8-------------8--8s10-------x-x-0-----8-----0-----8--8s10-------
d)--0------------0--------------------x-x-0-----------0-------------------

Verse 1 and 2: clean w/ chorus, delay, reverb.

e)------------------------------------
b)------------------------------------
g)-------5---5h7p5------------5-5p4h5-
d)---7-----7-------5h7----7-----------
a)-5---8----------------5---8---------
d)------------------------------------

e)-------------------------------------------------
b)-------------------------------------------------
g)-------5---5h7p5------------5-5p4h5-2--2-0-2h3p2-
d)---7-----7-------5h7----7------------------------
a)-5---8----------------5---8----------------------
d)-------------------------------------------------

e)----------------------
b)----------------------
g)-2-0------------------
d)-----2-0------5---7-0-
a)----------3h5---5-----
d)----------------------

e)------------------------------------
b)------------------------------------
g)-------5---5h7p5------------5-5p4h5-
d)---7-----7-------5h7----7-----------
a)-5---8----------------5---8---------
d)------------------------------------

Bridge: Clean (No effects), palm muted

e)------------------------------
b)------------------------------
g)------------------------------
d)---7---5----------7---5-------
a)-5---8---7-0-5--5---8---7-5-0-
d)------------------------------

e)--------------------------
b)--------------------------
g)--------------------------
d)---7---5----------7---5-\-
a)-5---8---7-0-5--5---8-5-\-
d)----------------------5-\- x3

e)-----------
b)-----------
g)-----------
d)---7---5-\-
a)-5---8-5-\-
d)-------5-\- x4

(Distortion kicks in) For pick scrapes, scrape upward (toward neck) on the d and a strings.
e)---0-----------------0------------------
b)---3-----------------3------------------
g)---2-(pick scrapes)--2-(pick scrapes)---
d)---0-----------------0------------------
a)---0-----------------0------------------
d)---0-----------------0------------------


verse 2: Bass plays the riff from the first verse, guitar plays verse 1

then:
e)----------------
b)----------------
g)----------------
d)-----0--7-------
a)-----------8----
d)--0-------------

chorus 1:(distortion)

"...I...am..too......connected...to you..to slip away..."
e)-------------------------------------------------------------------
b)-------------------------------------------------------------------
g)-------------------------------------------------------------------
d)--0--7---3---5---0-0--7-----3--5--0--0----0--7----3--5-------------
a)--0--7---3---5---0-0--7-----3--5--0--0----0--7----3--5-------------
d)--0--7---3---5---0-0--7-----3--5--0--0----0--7----3--5-------------

"...to fade away.......days away....I still feel you..."
e)---------------------------------------------------------------
b)---------------------------------------------------------------
g)---------------------------------------------------------------
d)--0--7----3--5s7--0--7----3--5--0-0-7-----3----5---------------
a)--0--7----3--5s7--0--7----3--5--0-0-7-----3----5---------------
d)--0--7----3--5s7--0--7----3--5--0-0-7-----3----5---------------

"...touching me......changing me.."
e)-------------------------------------------------------
b)-------------------------------------------------------
g)-------------------------------------------------------
d)--10h12--7----3---5--0-0--7----3---5--5--0-------------
a)--10h12--7----3---5--0-0--7----3---5--5--0-------------
d)--10h12--7----3---5--0-0--7----3---5--5--0-------------


then repeat this many times:(70 times I think) Clean
p.m.-------------|
e)-----------------------
b)-----------------------
g)-----------------------
d)------------10h12------
a)--10h12----------------
d)-----------------------

(light distortion)
e)-------------------------------------------------------------
b)-------------------------------------------------------------
g)-0h2-0h2-0h2-0h2-2-2-2-2-2p0-0-0-0-0-0h2-2-2-2-2-2h3-3-3-3-3-
d)-------------------------------------------------------------
a)-------------------------------------------------------------
d)-------------------------------------------------------------

e)----------------------------------------------
b)----------------------------------------------
g)-0-9-5-7-2h3p2-9-5-7--0-9-5-7b8-b8-b8-b8-b8-\-
d)----------------------------------------------
a)----------------------------------------------
d)----------------------------------------------

(palm muted)
e)---------------------------------------------------------
b)---------------------------------------------------------
g)---------------------------------------------------------
d)-8-8-8-8-8-8-8-8-5-5-5-5-5-5-5-5-10-10-10-10-10-10-10-10-
a)-8-8-8-8-8-8-8-8-5-5-5-5-5-5-5-5-10-10-10-10-10-10-10-10-
d)-8-8-8-8-8-8-8-8-5-5-5-5-5-5-5-5-10-10-10-10-10-10-10-10-

e)--------------------
b)--------------------
g)--------------------
d)-8-8-8-8-8-8--8--8--
a)-8-8-8-8-8-8--8--8--
d)-8-8-8-8-8-8--8--8--

[not palm muted]

e]---------------------------
b]-11---11-\8---8-/13---13-\-
g]-10---10-\7---7-/12---12-\-
d]-8----8--\5---5-/10---10-\-
a]-8----8--\5---5-/10---10-\-
d]-8----8--\5---5-/10---10-\-

e]---
b]-3-
g]-2-
d]-0-
a]-0-
d]-0-

"I don't miiiiiiiiiiiiiiiiiiiiiiiiiiiiiiiiiiiiind!"
e)---------------------------------------------------
b)---------------------------------------------------
g)---------------------------------------------------
d)--3p0-0-2p0-0-3p0-0-0-3p0-2p0-2p3------------------
a)--3p0-0-2p0-0-3p0-0-0-3p0-2p0-2p3------------------
d)--3p0-0-2p0-0-3p0-0-0-3p0-2p0-2p3------------------


Solo: w/ wah pedal
|-------------------------hold bend-------------------------|
e)-----------------------------------------------------------------
b)--10--10-10-10-10-10-10-10-10--10-10-10-10-10-10-10-10-10-10-10--
g)--12b-12-12-12-12-12-12-12-12--12-12-12-12-12-12-12-12-12-12-12--
d)-----------------------------------------------------------------
a)-----------------------------------------------------------------
d)-----------------------------------------------------------------
bend the note on the 12th fret of the g-string to the pitch of the
note on the 10th fret of the b-string and hold it while playing as
written above.

***************
e)-----------------------------------------------------------------
b)-----------------------------------------------------------------
g)--14-14-14-14-14-12-14---14-14-14-12s10-7-10s7-7-7---------------
d)---x--x--x--x--x--x--x----x--x--x--x--x-x--x-x-x-x---------------
a)--12-12-12-12-12-10-12---12-12-12-10ss8-5--8s5-5-5---------------
d)-----------------------------------------------------------------


e)---------------------------------------------------------------
b)---------------------------------------------------------------
g)--s14-14-14-14----s14-14-14-14----s14-14-14-14----s14-14-14-14-
d)----x--x--x--x------x--x--x--x------x--x--x--x------x--x--x--x-
a)--s12-12-12-12----s12-12-12-12----s12-12-12-12----s12-12-12-12-
d)---------------------------------------------------------------

**********************
e)---------------------------------------------------------------------------
b)---------------------------------------------------------------------------
g)--14-14-14s12-10-10s12-12-12s10-10-10s7-7-7-7-7-7-7-7-7-7-7-7-7------------
d)---x--x--x--x--x--x--x--x--x-----x---xx-x-x-x-x-x-x-x-x-x-x-x-x------------
a)--12-12-12s10--8--8s10-10-10s8---8--8s5-5-5-5-5-5-5-5-5-5-5-5-5------------
d)---------------------------------------------------------------------------

wah off |---hold bend---| |----hold bend----|
e)-----------------------------------------------------------------
b)--------------------3b---------------r3--3b----------------------
g)--7-7-7-------------2b---------------r2--2b----------------------
d)--x-x-x-------------0----let ring---------0----let ring----------
a)--5-5-5----------------------------------------------------------
d)-----------------------------------------------------------------
the wah is mostly used just as a filter, but it is also used to
"wah-wah" at certain times which are indicated by "*" above them.
(listen to the song to help clarify)

Chorus 2:

"...I am too.......connected to you...to slip away.......to..."
e)--------------------------------------------------------------
b)--------------------------------------------------------------
g)--------------------------------------------------------------
d)--0-0-1-1b-0--3-3b-0-5--5b-0---10h12--0-0--1----1b-0--3-3b-0--
a)--0-0-1-1b-0--3-3b-0-5--5b-0---10h12--0-0--1----1b-0--3-3b-0--
d)--0-0-1-1b-0--3-3b-0-5--5b-0---10h12--0-0--1----1b-0--3-3b-0--

"...fade away............days away......I still feel you..."
e)--------------------------------------------------------------
b)--------------------------------------------------------------
g)--------------------------------------------------------------
d)--5----5b-0-10h12--0-xxxx---1b-0-3-3b-0-5-----5b---0---10p12--
a)--5----5b-0-10h12--0-xxxx---1b-0-3-3b-0-5-----5b---0---10p12--
d)--5----5b-0-10h12--0-xxxx---1b-0-3-3b-0-5-----5b---0---10p12--

"...touching me.........changing me..."
e)------------------------------------------------
b)------------------------------------------------
g)------------------------------------------------
d)--0-0-1----1b--0--3-3b-0--5----5b------------0--
a)--0-0-1----1b--0--3-3b-0--5----5b------------0--
d)--0-0-1----1b--0--3-3b-0--5----5b------------0--
|-hold bend-|

Outro:

"...considerately killing me....considerately killing me..."
e)---------------------------------------------------------------------
b)---------------------------------------------------------------------
g)---------------------------------------------------------------------
d)-----7---------------------------7-----------------------------------
a)-------8--8--8--8--8----8----------8-8s10---10--10--10---------------
d)--0---------------------------0--------------------------------------

"...considerately killing me...."
e)----------------------------------------------------------------
b)----------------------------------------------------------------
g)----------------------------------------------------------------
d)----------------------------------------------------7-----------
a)--12-----------------------12---10------12---10-----8-----------
d)----------------------------------------------------0-----------

Copyrights
Author: ?
Composer: ?
Publisher: ?
More details
Language: English

Reactions

CommonCrawl [Bot]

Follow Muzikum