Tool
H Aenima Ver 2 (Bass tab)

tabbed by rob saunders
the whole song.

H
Intro:
d------7----------------------------7---------------
a--------8-----------------------------8---10-------
d---0----------------------------0------------------
Play above 2 times, then play below 6 times :
d-------7--------------7------------------
a----------8---------------8--10----------
d----0--------------0---------------------
1st Verse:
Play figure below 4 times:
d---------7----------------7------5---
a------------8-----------------8------
d---0--0------------------0-----------
Then play this:
d----7--------------------7-------------7---------------------7--------
a------8--(8)\3--3--5-------8--10---------8--(8)\3--3--5----5---5---10-
d--0--------------------0-------------0-------------------0------------

g-----------------------------------------
d--------7----5--------------7------------
a----------8----7-0-5------5---8---10-----
d---0--0-----------------0----------------
Pre - chorus:
g-------------------
d-------7----------- Play 4 times, then play figure below 2 times:
a-----5---8---10----
d---0---------------

g-------------------------------
d-----7------------7------------
a-------8------------8--10------
d---0------------0--------------
2nd Verse:
Play figure below 3 times:
g--------------5---5h7p5---------------5---5p4------
d-------7----7-----------7---------7-----7-----5----
a-----5---8----------------------5---8--------------
d---0--------------------------0--------------------
End 2nd Verse with this:
g-----------5----5h7p5-----------------5p0---------
d-------7------7-------7----------7-------3p0------
a-----5---8---------------------5---8--------------
d---0-------------------------0--------------------
Then play this going in to the Pre Chorus:
g-----------5---5h7p5-----------5---5p4------------5---5h7p5----------------
d-------7-----7------7------7-----7----5--------7----7------7------7--------
a-----5---8---------------5---8---------------5---8--------------5---8---10-
d---0-------------------0-------------------0------------------0------------
Pre - Chorus:
d-------7---5----------------7-------------
a-----5---8---7-0-5--------5---8--10-------
d---0--------------------0-----------------
Play below 10 times:
d-------7----------
a-----5---8--10----
d---0--------------
Chorus:
d-----7--------------7-------------7--------------7---------------------
a-------8--10--10------8--10-10------8--10--10------8--10--10--10/15----
d---0--------------0-------------0--------------0-----------------------

d-----7-----------7---------------7--------------7---------------
a-------8--10-------8--10--15-------8--10--10------8--10--10^----
d---0-----------0---------------0--------------0--------------0--
play the very first intro riff
guitar interlude:
a---------------------5------------10--------------8---8-----8-----8--
d--8---8--8---8--7--5------5----10-------10--9--8---------8-----8-----

d--------------------------------------8--8-----------------------5-------5--
a----------5-----5-----10---10------8------------8------8-------5-------5----
d---5---5-----5-----10----------8---------------8---8-----8---5--------------

d----------------------------------------------8------------------------
a---------10-------------10-----------8----------8------8---------8-----
d--10--10-----10--10--10----10---8--8----8--8------8--8----8---8-----8--

d-----------5----5---------------------------------------------------
a---------5----5-----------10-----------10---------------------------
d---5--5------------10--10----10---10-10---10---8--8-8-8-8--8-8-8-8--

d---8--8--8--8--8--8--8--8--5--5--5--5--5--5--5--5-----10--10--10--10--10---

a---------------------------8--------8-----------------------------
d---10--10--10-10--8---8--8----8--8-----8--8--8--8--8--8--8--8--8--

d---5--5--5--5--5--5--5/10-10--10--10--10--10--10--10--10--12-0--
"I don't mind...I don't mind...I don't mind!"
Double - Time feel: Play 8 times through 1st half of Guitar Solo
g-------------------------------------
d---3-3-3-1-1-1-3-0-0-0-3-0-1-0-3h4---
Then play this below 4 times through the 2nd half of solo:
g--------------------------------------
d---0-0-0-7-7-7-3-3-3-5-5-5-5-5-5p0----
Then play this before 2nd chorus, original feel:
g------------------------------------------------------------------5--7--5h7-
d-------7--5----------7--------5--5-----------7---5----7---------5-----------
a-----5------6----------8----8------5--3--5---------5----8---8---------------
d---0---------------0--------------------------------------------------------
2nd Chorus:
g---------------------------------------------------------------0--10h12p10---
d-----5----8--7----------------------------5---8--7------------------------12-
a-------6-------8--(8)-----8--10---3h5-------6------8--5--8--10---------------
d---0-------------------0--------7-------0------------------------------------

d-----5----8--7----------------------------5---------------
a-------6-------8------8---10----3h5---------6---8----10---
d---0----------------0---------7---------0-----------------

g--------10---10----10---8----13\10-10/12-------12-----12^ -12--10--
d-------------------------------------------------------------------
a-------------------------------------------------------------------
d---0---------------------------------------------------------------

g--------14\10----10---10----10----10---------14\10------3----
d---0------------------------------------------0--------------

send corrections,tabs,loveletters and other useful
stuff to chinosheir@aol.com
.

Copyrights
Author: ?
Composer: ?
Publisher: ?
More details
Language: English

Reactions

CommonCrawl [Bot]

Follow Muzikum