Tool
H Aenima (Bass tab)

This song is in Drop D tuning (D,A,D,G)

The very awesome intro. Justin has some sort of distortion on.

Tabbed by: Matt Fortuna

x2
G------------------------------------
D-----7-------------7----------------
A--------8-------------8--10---------
D--0-------------0-------------------

he does this part faster x4
G------------------------------------
D-----7-------------7----------------
A--------8-------------8--10---------
D--0-------------0-------------------

the distortion is off on this part x6
G------------------------------------
D-----7-------------7----------------
A--------8-------------8--10---------
D--0-------------0-------------------

Rate this tab!

Copyrights
Author: ?
Composer: ?
Publisher: ?
More details
Language: English

Reactions

CommonCrawl [Bot]

Follow Muzikum