Black Sabbath

Black Sabbath
Electric Funeral Ver 8 (Guitar tab)

Black Sabbath
Electric Funeral

Riff 1
E-----------------------------------------
B-----------------------------------------
G-----------------------------------------
D-----------------------------------------
A------2-3-2------------------------------
E--0-0-------0-2-3-2----------------------
Repeat 4 Times

Riff 2
E-----------------------------------------
B-----------------------------------------
G-----------------------------------------
D-----------------------------------------
A-----------------------------------------
E--0-0-0-0-7-6-5-3------------------------
Repeat 8 Times

Riff 1
E-----------------------------------------
B-----------------------------------------
G-----------------------------------------
D-----------------------------------------
A------2-3-2------------------------------
E--0-0-------0-2-3-2----------------------
Repeat 4 Times

Riff 2
E-----------------------------------------
B-----------------------------------------
G-----------------------------------------
D-----------------------------------------
A-----------------------------------------
E--0-0-0-0-7-6-5-3------------------------
Repeat 8 Times

Riff 1
E-----------------------------------------
B-----------------------------------------
G-----------------------------------------
D-----------------------------------------
A------2-3-2------------------------------
E--0-0-------0-2-3-2----------------------
Repeat 4 Times

Riff 3
E-----------------------------------------
B-----------------------------------------
G-----------------------------------------
D-----------------------------------------
A-----------------------------------------
E----12-11-10h----------------------------
Repeat 5 Times

Riff 4
E-----------12----------------------------
B-----------12----------------------------
G-----------12----------------------------
D-----------12----------------------------
A-----------------------------------------
E--12-10-12-------------------------------
Repeat 8 Times

Riff 5
E-----------------------------------------
B--17-17-17-17\---------------------------
G-----------------------------------------
D-----------------------------------------
A-----------------------------------------
E-----------------------------------------
Repeat 3 Times, Slide Down on Last Note on Last Time

Riff 6
E-----------------------------------------
B-----------------------------------------
G-----------------------------------------
D-----------------------------------------
A-----------------------------------------
E--10-10-10-12/\h~~~~~--------------------
Repeat 3 Times Then Hold Note on Last Time And Virbrato

Riff 1
E-----------------------------------------
B-----------------------------------------
G-----------------------------------------
D-----------------------------------------
A------2-3-2------------------------------
E--0-0-------0-2-3-2----------------------
Repeat 4 Times

Riff 2
E-----------------------------------------
B-----------------------------------------
G-----------------------------------------
D-----------------------------------------
A-----------------------------------------
E--0-0-0-0-7-6-5-3------------------------
Repeat 8 Times

Riff 1
E-----------------------------------------
B-----------------------------------------
G-----------------------------------------
D-----------------------------------------
A------2-3-2------------------------------
E--0-0-------0-2-3-2----------------------
Repeat 4 Times

Riff 2
E-----------------------------------------
B-----------------------------------------
G-----------------------------------------
D-----------------------------------------
A-----------------------------------------
E--0-0-0-0-7-6-5-3------------------------
Repeat til End of Song

KEY:
h=hold note
/=slide up from note
\=slide down from note
~=virbrato

OptimusPrime

Submitted by OptimusPrime at Wed 08 Feb, 2006 7:45 pm

Author: ?
Composer: ?
Publisher: ?
Language: English

Reactions

CommonCrawl [Bot]

Follow Muzikum