Black Sabbath

Black Sabbath
Embryo Ver 3 (Guitar tab)

Artist: Black Sabbath
Song: Embryo


C#||--0-0-0-0-0---0---0-0---0-0-0-0-0---0---0-0---|
G#||----------------------------------------------|
E ||----------------------------------------------|
B ||--2-4-5-4-2h0-5h4-2-2h0-5-7-9-7-5h4-2h0-2-2h0-|
F#||----------------------------------------------|
C#||----------------------------------------------|



--0-0-0-0-0---0---0-0---0-0-0-0-0---0---0-0---|
----------------------------------------------|
----------------------------------------------|
--9-7-5-4-2h4-5h4-2-2h0-2-4-5-4-2h0-5h4-2-2h0-|
----------------------------------------------|
----------------------------------------------|



--0--0--0-0--0---0---0-0---0-0-0-0-0---0---0-0---|
-------------------------------------------------|
-------------------------------------------------|
--14-12-9-12-7h9-5h4-2-2h0-2-4-5-4-2h0-5h4-2-2h0-|
-------------------------------------------------|
-------------------------------------------------|



--3-2-0-0-0---0---0-0---7-5-3-0-0---0---0--||
-------------------------------------------||
-------------------------------------------||
--0-0-0-2-2h4-5h4-2-2h0-5-4-2-0-2h4-5h4-2--||
-------------------------------------------||
-------------------------------------------||

Dr.Stein

Submitted by Dr.Stein at Sun 03 Jul, 2005 4:31 am

Author: ?
Composer: ?
Publisher: ?
Language: English

Reactions

CommonCrawl [Bot]

Follow Muzikum