Black Sabbath

Black Sabbath
Iron Man Ver 21 (Guitar tab)

I've noticed some tabbers don't put the slide in where it really needs to be to make the song sound how black sabbath plays it. So I have added the slads where they need to be and I have also added something else! I have added how many times each riff is played and when they are played.

Tabbed by: KNirvana
Submitted by: KNirvana

key:b=bend
r=release
h=hammer on
/=slide
To explain the thing I've added for example if you see 2(x2) This means you play this second twice another example if you see 10(x2) you play this the 10th time twice.

If you have any questions or suggestions please E-Mail me at sk8erpunkzero2002@yahoo.com.

intro
e-----------------------------------------------|
b-----------------------------------------------|
g-----------------------------------------------|
d-----------------------------------------------| 1(x3)
a-----------------------------------------------|
e-----(0)---------------------------------------|
(bend string above the nut)


main riff
e-----------------------------------------------|
b-----------------------------------------------|
g-----------------------------------------------|
d----5-8-8/10-10-----13/12/13/12/13--8-8/10-10--| 2(x2) 4(x2) 7(x2) 11(x2)
a----3-6-6/8--8------11/10/11/10/11--6-6/8--8---|
e-----------------------------------------------|



riff 2
e-----------------------------------------------|
b-----------------------------------------------|
g-----------------------------------------------|
d-----------------6-5-6-5-6-5-------------------| 3(x2) 5(x2) 8(x2) 12(x2)
a---3--6--6/8-8---------------6-6/8-8-----------|
e-----------------------------------------------|



riff 3
e------------------------------------| e------------------|
b------------------------------------| b------------------|
g------------------------------------| g------------------|
d------1-----------------------------|5 (x2) d-----1------------| (x1)
a--3-3---3-2-1-1-1-----0-1-1-2-1-1-1-| a-3-3---3-2-1-1-1--|
e-------------------1----------------| e------------------|


riff 4
e------------------------------------------------|
b------------------------------------------------|
g--------------------------3-4-5-----------------|
d--10----8---5-5----3-3-4-5----------------------| 9(x2) 10(x2) 13(x2) 14(x2)
a--8-----6---3-3-3-6-----------------------------|
e------------------------------------------------|


riff 5
e------------------------------------------------|
b------------------------------------------------|
g--7-5-------------------------------------------|
d-------7-6-5-3----------------------------------|
a---------------3-3h5-5--------------------------|
e------------------------------------------------|


solo 1
e-------------------------------------------------------------|
b-------------------------------------------------------------|
g------------------------------------------10-----------10-10-|
d------------------------------10-10-10h120--12-12-10---------|
a------8h10-10-8----8-10-10/12------------------------12------|
e--8-10----------10-------------------------------------------|

e------------------------10----------------------------------|
b---------------------------13-10---10-----------------------|
g-------------------12b14---------12--10-10-------------10h12|
d--12-10---10h12-12-------------------------12-10-10h12------|
a--------12--------------------------------------------------|
e------------------------------------------------------------|

e----------10------------------------------------------10------|
b--------10--13-10-------10-13-10----10-13-10-------10----13b15|
g--12b14-----------12-10----------12----------12-10------------|
d--------------------------------------------------------------|
a--------------------------------------------------------------|
e--------------------------------------------------------------|

e--10---------13b15-13b15r13-13-10----10-------15-10------------|
b----13-10-10----------------------13----13b15-------13b15-13-10|
g---------------------------------------------------------------|
d---------------------------------------------------------------|
a---------------------------------------------------------------|
e---------------------------------------------------------------|

e---------10---------------------------------------------|
b------10----13-10---------------------------------------|
g--12/-------------12-12-10---10-10----------------10----|
d---------------------------12------12-10----10h12----10-|
a-----------------------------------------12-------------|
e--------------------------------------------------------|

e----------------------------------------------------------------------|
b----------------------------------------------------------------------|
g----------------------------------------------------------------------|
d--10h12-10h12-10h12-10h12-10h12-10h12-10h12-10h12-10h12-10h12-10h12-12|
a----------------------------------------------------------------------|
e----------------------------------------------------------------------|


riff 6/outro
e-------------------------------------------------|
b-------------------------------------------------|
g-------------------------------------------------|
d----------5-6-5-6-5------------------------------|
a--6-8-6-8-----------6----------------------------|
e-------------------------------------------------|


solo 2
e----------------------------------------------------------|
b----------------------------------------------------------|
g---------------8----8-10-b13r10-b13r10-b13r10-8----8-9/10-|
d------6---8/10---10-----------------------------10--------|
a--6/8---8-------------------------------------------------|
e----------------------------------------------------------|

e------------11-11h13--13b15-13b15-r15-13-11-13-11-11------|
b--9----11/13-----------------------------------------12/11|
g----10----------------------------------------------------|
d----------------------------------------------------------|
a----------------------------------------------------------|
e----------------------------------------------------------|

e----------------------------------------------------------|
b--9-------------------------------------------------------|
g----10-8--------------------------------8----8-10-b13r10--|
d---------9/8-6-8-6---6h8-----6h8-8-8/10---10--------------|
a-------------------8-----6h8------------------------------|
e----------------------------------------------------------|

e-----------------------------------------------------------|
b-----------------------------------------------------------|
g--b13r10-b13r10-10b13-8h10-8----8--------------------------|
d-----------------------------10---9/8-6-8-6-8-8b9-8b9r8-6--|
a----------------------------------------------------------8|
e-----------------------------------------------------------|

Thats all.

KNirvana

Submitted by KNirvana at Mon 27 Dec, 2004 9:40 pm

Author: ?
Composer: ?
Publisher: ?
Language: English

Reactions

CommonCrawl [Bot]

Follow Muzikum