Black Sabbath

Black Sabbath
Iron Man - Easy But Awsome (Guitar tab)

Artist: Black Sabbath
Song: Iron Man
By: Andrew Blundell at spreadum_sista@hotmail.com

Normal tuning

Intro:

|--------------------------------------------------------------|
|--------------------------------------------------------------|
|--------------------------------------------------------------|
|---------------------------10-8-10--8--10--8------------------| X-2
|--5---8---8---10---10------8--6--8--6---8--6--8---8---8-------|
|--3---6---6---8-----8-------------------------6---10--10------|

after that:

|-------------------------------------------------------|
|-------------------------------------------------------|
|-------------------------------------------------------| X-2
|-------------------------------------------------------|
|--5----8----6----4----3---3---3------------------------|
|--3----6----4----2----1---1---1---0--1--3--3-----------|

After you do the previous part, go back to the intro and do it again twice.
I think its pretty good for my age. (14)

OptimusPrime

Submitted by OptimusPrime at Mon 19 Jul, 2004 7:58 pm

Author: ?
Composer: ?
Publisher: ?
Language: English

Reactions

1 post

CommonCrawl [Bot]
mcgrady03
Sun 22 Oct, 2006 8:16 pm
how wrong is this tab it couldnt get any worse, im 13 and im playing solo's by now and slipknot. this is pathetic.
1 post • Page 1 of 1

Follow Muzikum