Black Sabbath

Black Sabbath
Iron Man Ver 3 (Guitar tab)

Black Sabbath - Iron Man
Tabbed by Ruben



Intro:

E-----------------|
B-----------------|
G-----------------|
D-----------------|
A-----------------|
E-----3-----0-----|

Riff 1

E-----------------------|------------------------------------|
B-----------------------|------------------------------------|
G-------7----7--9--9----|----------------------7--7--9--9----|
D----9--7----7--9--9----|----12-11-12-11-12----7--7--9--9----|
A----9--5----5--7--7----|----10--9-10--9-10----5--5--7--7----|
E----7------------------|------------------------------------|

Riff 2

E----------------This is the A you___-----|------------------|
B--------------end on the last time--\----|------------------|
G--------------7--7------------------|----|------------------|
D----9--9--9---7--7---9--9--8--7--7--7----|----6--7--7--8----|
A----9--9--9---5--5---9--9--8--7--7--7----|----6--7--7--8----|
E----7--7--7----------7--7--6--5--5--5----|----4--5--5--6----|

Riff 3

E-----------------|
B-----------------|
G-----9-----7-----|
D-----9-----7-----|
A-----7-----5-----|
E-----------------|

Riff 4

E--------------------------------------|
B--------------------------------------|
G--------------------------------------|
D--9--9-----------------------7-8-9----|
A--9--9---------7----7-8-9-------------|
E--7--7----7-10------------------------|

Riff 5

E------------------------------------|
B------------------------------------|
G----6--4----------------------------|
D----------6--5--4-------------------|
A-------------------7--------4--4----|
E----------------------7--7----------|

Riff 6

E----------------------|---------------------------------|
B----------------------|---------------------------------|
G----------------------|---------------------------------|
D----------------------|-------------4--5--4--5--4-------|
A----7p5h7----5h7p5----|----7p5h7-------------------5----|
E----------------------|---------------------------------|

Ending

E---------------|
B---------------|
G---------------|
D---------------|
A-----7p5h7-----|
E---------------|

Solo:

E------------------------------------------|------------------------|
B------------------------------------------|------------------------|
G----------------------------------9-------|--------9---------------|
D-------------------------9-9-9-11---11p9--|--11-11---11p9----9-11--|
A------7-7h9p7---7-9-9/11------------------|---------------11-------|
E--7h9---------9---------------------------|------------------------|

E-----9-9--------------|-----------------9--------------------------|
B-----9---12p9---------|----------------9--12p9------9-12p9------9--|
G--11----------11-9-9--|------------9h11--------11p9--------11p9----|
D----------------------|--11p9-9h11---------------------------------|
A----------------------|--------------------------------------------|
E----------------------|--------------------------------------------|

E-------------------9--|--9--------14-14--|--14p12------------------|
B--12p9------9h12---9--|----12-9-9--------|-------14-14--14-12-14~--|
G-------11p9-----------|------------------|-------------------------|
D----------------------|------------------|-------------------------|
A----------------------|------------------|-------------------------|
E----------------------|------------------|-------------------------|

E---------------------------------|---------------------------------|
B--14-14-12------14-12------------|---------------------------------|
G----------13-13------13-11-------|---------------------------------|
D--------------------------14-11--|--14-14-11-------14-14-11--------|
A---------------------------------|-----------14p11----------14p11--|
E---------------------------------|---------------------------------|

E---------|---------------------------------------------------------|
B---------|---------------------------------------------------------|
G---------|---------------------------------------------------------|
D--11h14--|------11-11-11----11-11-11-----11-11-11----11-11-11------|
A---------|---------------------------------------------------------|
E---------|---------------------------------------------------------|

2nd Solo:

E----------------|---------------------------------|
B----------------|--8----8------8------------------|
G-------------7--|----9----9------9--7-----7--9~~--|
D-----5--7/9-----|----------------------9----------|
A--7-------------|---------------------------------|
E----------------|---------------------------------|

E------------10-10/12--|--14-14-14p12--------------------|
B--8--10/12------------|--------------15p12--------------|
G----------------------|--------------------14-12--------|
D----------------------|--------------------------14-12--|
A----------------------|---------------------------------|
E----------------------|---------------------------------|

E----------------------|---------------------------------|
B----------------------|-----------------8---8---8---8---|
G----------------------|-----------7-7-9---9---9---9---9-|
D--7--5--7p5----5h7----|---5-5-7/9-----------------------|
A------------7------7--|-7-------------------------------|
E----------------------|---------------------------------|

E--------------------------------------------------------|
B--8-----------------------------------------------------|
G----9p7---7---------------------------------------------|
D--------9-------7-5-7-----5-7-8-8-----8p7p5-------------|
A---------------------------------------------7----------|
E--------------------------------------------------------|



|-------------------------------------------------------------------|



Intro - 4 times.

Riff 1 - 7 times.
Riff 2 - 3 times.

Riff 1 - 4 times.
Riff 3 - 1 time.
Riff 4 - 2 times.
Riff 3 - 1 time.
Riff 4 - 2 times.

Riff 1 - 4 times.
Riff 3 - 1 time.
Riff 4 - 2 times.
Riff 3 - 1 time.
Riff 4 - 2 times.
Riff 5 - 2 times.

Solo

Riff 5 - 2 times.
Riff 4 - 4 times.
Riff 1 - 4 times.
Riff 2 - 3 times.

Intro theme - 2 times.
Riff 6 - 2 times.

2nd Solo

Riff 6 - 4 times.
Ending Theme.



|-------------------------------------------------------------------|



Comments, suggestions, corrections, anything???
Mail me at drb_89@spray.no

drb

Submitted by drb at Fri 19 Mar, 2004 11:29 pm

Author: ?
Composer: ?
Publisher: ?
Language: English

Reactions

CommonCrawl [Bot]

Follow Muzikum