Black Sabbath

Black Sabbath
War Pigs Ver 2 (Bass tab)

Here is the absolute correct version of War Pigs
Its good baby soooo good trust me this version is a clean as it gets
HERE IT IS

intro-in 12/8 time
1--------------------------------------------------------------------------------
2------------------------------------------------------------7/9--7--5-----------
3---7----7---5------5h7-5---5-5h7--5------5---5--5---5---5-------------7--5------
4---------------7---------7------------------------7---7---------------------7---

1----------------------------------7h9-9-9--9--------------------------------------
2-----------------5b---------5-7-9-----------------------------------7b-5----------
3--7----7--7--5-------7---7--------------------5--5---5---5--5---5--------7--5-----
4---------------7---------------------------------------7---7-------------------7--

1----------------------------------7h9-9-9-9-9--------------------------------------
2-----------------5b---------5-7-9-------------------------------------7b--5--------
3--7---7--7--5-------7---7----------------------5----5--5---5---5----5-------7--5---
4---------------7-----------------------------------------7---7-------------------7-

1----------------------------------7-7-7-7-7-7-7------------------7-9-------7-5
2------------------------------5h7--------------------------5-7-9--------------7-5b
3--7--7--7--7--7--7--7p5-5--5---------------------7---7--7------------5--5-5-------7
4-----------------------------------------------------------------------------------

verse
1--------
2--------
3--5--7--
4--------
chorus-repeat
1------------------------9-7------------------------------------------
2----------------------9-----9-7---5-----------------------------5b---
3--5--7/---10-9-8--8-7----------------5--7----10-9-8--8---7-5h7-------
4----------------------------------------------------------------------
fast part-repeat 2wice
1----------------------------------------------------------
2------------------------5----6-7-8----------------5-------
3--7-7-0-0-7-X-7-7-7-5h7----7-------7-7-7-X-7--5h7---------
4----------------------------------------------------------

repeat 4 times
1--------------------------------
2-------------------------5~~~---
3--7-7-7-7-7--X-7-7-7-5h7--------
4--------------------------------

1------------------------------------------------------------------------
2---------------------5b---6-7-8-------------5b----------------------5b--
3-7------7--X-7-7-5h7-----7------7-X-7-7-5h7-----7-X-----7-X-7-7-5h7-----
4--5-6-7---------------------------------------------6-6-----------------

1---------------------------------
2----6-7/8/7-----------------5b---
3--7---------7--X-7-7--7-5h7------
4---------------------------------

third verse-repeat 4 times
1------9-9----------------------
2-------------------------5~~~~-
3--7-7-----7-X-7-7--7-5h7-------
4-------------------------------

guitar solo-HERE IT GETS CRAZY_WHEEEE!!!!
1------9-9-----9-9---9----9----------9-----9-9---9---9---9---9-----9-9-7-7
2
3--7-7-----7-7-----7---7----7--7--7----7-7-----7---7---7---7---7-7---------
4--------------------------------------------------------------------------
crap gota go ill finish it later tommorrow

OptimusPrime

Submitted by OptimusPrime at Thu 14 Aug, 2003 4:14 pm

Author: ?
Composer: ?
Publisher: ?
Language: English

Reactions

CommonCrawl [Bot]

Follow Muzikum