Black Sabbath

Black Sabbath
Tomorrows Dream Ver 2 (Guitar tab)

#research. Remember to view this file in Courier, or other monospaced font. #
#See http://www.olga.net/faq/ for more information. #


Subject: b/black_sabbath/tomorrows_dream.tab
Date: Fri, 18 Jul 1997 21:01:52 +0200 (MET DST)
From: alex.ljung@swipnet.se

Tomorrow's dream by black sabbath

Intro Riff
e---|---------------------------------
B---|---------------------------------
G---|-----------------------555-------
D---|--5-7-777-5-7-55-7\----553-------
A---|7-3-5-555-3-5-33-5\----333-------
E---|5--------------------------------

Verse Riff -Pluck notes or stroke up & down
D C G
e---|--------------|-----------------
B---|--------------|-----------------
G---|7-7-7-7-7-7-7-|7-7\----5--5-----
D---|7-7-7-7-7-7-7-|7-5\----5--55--5-
A---|5-5-5-5-5-5-5-|5-5\----3--35--5-
E---|--------------|------------3--3-

Well I'm leaving tomorrow at daybreak
Catch the fastest train around nine
Yes, I'm leaving he sorrow and heartache
Before it takes me away from my mind

Send me love and I may let you see me
Send me hopes I can spin in my head
But if you really want me to answer
I can only let you know I'm not dead

At the end of each verse - Riff 3
e---|----------------|----------------
B---|----------------|----------------
G---|5-----5---5-5---|----------------
D---|5-----5---5-5---|----------------
A---|3-----3---3-3---|----------------
E---|----------------|6p5p3-6p5p3-5p3-

Intro riff (X4)

Then C Eb\C
e---|------0-----0---|------3-----3---
B---|----1---1-----1-|----4---4-----4-
G---|--0-------0-----|--3-------3-----
D---|----------------|----------------
A---|3---------------|3---------------
E---|----------------|----------------
Bar 3rd fret
When sadness fills my days
It's time to turn away
And then tomorrow's dreams
Become reality to me

Riff 3 then solo
e---|----------------|----------------|----------------|
B---|----------------|----------------|----------------|
G---|----------------|----------------|----------------|
D---|----3-3---------|3-3-------------|----3-3---------|
A---|3-5-----5---3-5-|----5-----------|3-5-----5---3h5p3
E---|----------------|----------------|----------------|

e---|----------------|----------------|----------------|
B---|----------------|5b--------------|----------------|
G---|---5-5h7--------|--5h7p5---------|----------------|
D---|/7--------------|-------7p5------|----3-3---------|
A---|----------------|-----------8p5\-|3h5-----5---3h5p3
E---|----------------|----------------|----------------|

e---|----------------|----------------|----------------|
B---|----------------|----------------|----------------|
G---|--5-------------|----------------|----------------|
D---/7---7p5---7p5---|----3-3---------|----------------|
A---|--------8----8p5\3h5-----5-------|Riff 3-X2-------|
E---|----------------|------------5-3-|----------------|

Verse Riff
So realise I'm much better without you
Your not the one and only thing in my heart
I'll just go back to pretending I'm living
But this time I'm gonna have to stop art? fast? -(not sure)

riff 3 X 2 then C Chord

se ya!
Send me tabs! alex.ljung@swipnet.se

OptimusPrime

Submitted by OptimusPrime at Thu 14 Aug, 2003 4:14 pm

Author: ?
Composer: ?
Publisher: ?
Language: English

Reactions

CommonCrawl [Bot]

Follow Muzikum