Black Sabbath

Black Sabbath
Supernaut Ver 2 (Bass tab)

Supernaut - Black Sabbath

You may want to use a flanger or bass chorus pedal on the verse.

chorus/solo riff
G|--------------------------------------------------------|
D|--------------------------------------5--5--53--5-5-53--|
A|5--553--35-5--5-5-53--3---5--553--3-5---------3-------3-|
E|------3-------------3-----------3-----------------------|

verse riff
G|----/7--/7--/7--------|
D|--57--57--57----------|
A|55------------33333333|
E|----------------------|

tabbed by Achilles (blue_sincere@hotmail.com)

OptimusPrime

Submitted by OptimusPrime at Thu 14 Aug, 2003 4:14 pm

Author: ?
Composer: ?
Publisher: ?
Language: English

Reactions

CommonCrawl [Bot]

Follow Muzikum