Black Sabbath

Black Sabbath
Parinoid (Guitar tab)

e-------------------------------------------------------------------------------------------
H-------------------------------------------------------------------------------------------
G-------------------------------------------------------------------------------------------
D----------------------------12h14-------12h14----------------------------12h14-------12h14-
A-12h14--12h14--12h14--12h14-------12h14-------12h14--12h14--12h14--12h14-------12h14-------
E-12-----12-----12-----------------------------12-----12-----12-----------------------------

e-------------------------------------------------------------------------------------------
H-------------------------------------------------------------------------------------------
G-------------------------------------------------------------------------------------------
D----------------------------12h14-------12h14----------------------------12h14-------12h14-
A-12h14--12h14--12h14--12h14-------12h14-------12h14--12h14--12h14--12h14-------12h14-------
E-12-----12-----12-----------------------------12-----12-----12-----------------------------

Verse 1:
e-------------------------|-------------------------|-------------------------|---------------------|
H-------------------------|-------------------------|-------------------------|------------------12-|
G-------------------------|-------------------------|-------------------------|-12---------------12-|
D-14-14-14-14-14-14-14-14-|-14-14-14-14-14-14-14-14-|-12-12-12-12-12-12-12-12-|-12---12-----14---12-|
A-14-14-14-14-14-14-14-14-|-14-14-14-14-14-14-14-14-|-12-12-12-12-12-12-12-12-|-10---12-----14------|
E-12-12-12-12-12-12-12-12-|-12-12-12-12-12-12-12-12-|-10-10-10-10-10-10-10-10-|------10-----12------|
pm...........................................................................

Finished with my Woman cause she couldn�t help me with my mind.

e-------------------------|-------------------------|-------------------------|--------------------------|
H-------------------------|-------------------------|-------------------------|--------------------------|
G-------------------------|-------------------------|-------------------------|-12-----------------------|
D-14-14-14-14-14-14-14-14-|-14-14-14-14-14-14-14-14-|-12-12-12-12-12-12-12-12-|-12---12-----14---14-let--|
A-14-14-14-14-14-14-14-14-|-14-14-14-14-14-14-14-14-|-12-12-12-12-12-12-12-12-|-10---12-----14---14-ring-|
E-12-12-12-12-12-12-12-12-|-12-12-12-12-12-12-12-12-|-10-10-10-10-10-10-10-10-|------10-----12---12------|
pm...........................................................................

People think I�m insane because I am frowning all the time.

e-------------------|-------------------------|---------------------------------|
H-------------------|-------------------------|---------------------------------|
G-------------------|-------------------------|---------------------------------|
D-10-------12-------|-14-14-14-14-14-14-14-14-|-14-14-14-14-14-14-14-14-14-let--|
A-10-------12-------|-14-14-14-14-14-14-14-14-|-14-14-14-14-14-14-14-14-14-ring-|
E-8--------10-------|-12-12-12-12-12-12-12-12-|-12-12-12-12-12-12-12-12-12------|
pm.................................................

e-------------------|-------------------------|-------------------------|
H-------------------|-------------------------|-------------------------|
G-------------------|-------------------------|-------------------------|
D-10-------12-------|-14-14-14-14-14-14-14-14-|-14-14-14-14-14-14-14-14-|
A-10-------12-------|-14-14-14-14-14-14-14-14-|-14-14-14-14-14-14-14-14-|
E-8--------10-------|-12-12-12-12-12-12-12-12-|-12-12-12-12-12-12-12-12-|
pm.................................................

e-------------------------|-------------------------|-------------------------|---------------------|
H-------------------------|-------------------------|-------------------------|------------------12-|
G-------------------------|-------------------------|-------------------------|-12---------------12-|
D-14-14-14-14-14-14-14-14-|-14-14-14-14-14-14-14-14-|-12-12-12-12-12-12-12-12-|-12---12-----14---12-|
A-14-14-14-14-14-14-14-14-|-14-14-14-14-14-14-14-14-|-12-12-12-12-12-12-12-12-|-10---12-----14------|
E-12-12-12-12-12-12-12-12-|-12-12-12-12-12-12-12-12-|-10-10-10-10-10-10-10-10-|------10-----12------|
pm...........................................................................

All day long I think of things but nothing seems to satisfy.

e-------------------------|-------------------------|-------------------------|--------------------------|
H-------------------------|-------------------------|-------------------------|--------------------------|
G-------------------------|-------------------------|-------------------------|-12-----------------------|
D-14-14-14-14-14-14-14-14-|-14-14-14-14-14-14-14-14-|-12-12-12-12-12-12-12-12-|-12---12-----14---14-let--|
A-14-14-14-14-14-14-14-14-|-14-14-14-14-14-14-14-14-|-12-12-12-12-12-12-12-12-|-10---12-----14---14-ring-|
E-12-12-12-12-12-12-12-12-|-12-12-12-12-12-12-12-12-|-10-10-10-10-10-10-10-10-|------10-----12---12------|
pm...........................................................................

Think I�ll lose my mind if I don�t find something to pacify.

e-------------------------|-------------------------|-------------------------|--------------------------|
H-------------------------|-------------------------|-------------------------|--------------------------|
G-------------------------|-------------------------|-------------------------|--------------------------|
D-------------------------|-10-let------------------|-14-let------------------|-10-let-------------------|
A-------------------------|-10-ring-----------------|-14-ring-----------------|-10-ring------------------|
E-------------------------|-8-----------------------|-12----------------------|-8------------------------|

Can you help me? Are you for my brain? Oh yeah!

e-------------------------|-------------------------|-------------------------|---------------------|
H-------------------------|-------------------------|-------------------------|------------------12-|
G-------------------------|-------------------------|-------------------------|-12---------------12-|
D-14-14-14-14-14-14-14-14-|-14-14-14-14-14-14-14-14-|-12-12-12-12-12-12-12-12-|-12---12-----14---12-|
A-14-14-14-14-14-14-14-14-|-14-14-14-14-14-14-14-14-|-12-12-12-12-12-12-12-12-|-10---12-----14------|
E-12-12-12-12-12-12-12-12-|-12-12-12-12-12-12-12-12-|-10-10-10-10-10-10-10-10-|------10-----12------|
pm...........................................................................

e-------------------------|-------------------------|-------------------------|---------------------|
H-------------------------|-------------------------|-------------------------|------------------12-|
G-------------------------|-------------------------|-------------------------|-12---------------12-|
D-14-14-14-14-14-14-14-14-|-14-14-14-14-14-14-14-14-|-12-12-12-12-12-12-12-12-|-12---12-----14---12-|
A-14-14-14-14-14-14-14-14-|-14-14-14-14-14-14-14-14-|-12-12-12-12-12-12-12-12-|-10---12-----14------|
E-12-12-12-12-12-12-12-12-|-12-12-12-12-12-12-12-12-|-10-10-10-10-10-10-10-10-|------10-----12------|
pm...........................................................................

e-------------------------|-------------------------|-------------------------|---------------------|
H-------------------------|-------------------------|-------------------------|------------------12-|
G-------------------------|-------------------------|-------------------------|-12---------------12-|
D-14-14-14-14-14-14-14-14-|-14-14-14-14-14-14-14-14-|-12-12-12-12-12-12-12-12-|-12---12-----14---12-|
A-14-14-14-14-14-14-14-14-|-14-14-14-14-14-14-14-14-|-12-12-12-12-12-12-12-12-|-10---12-----14------|
E-12-12-12-12-12-12-12-12-|-12-12-12-12-12-12-12-12-|-10-10-10-10-10-10-10-10-|------10-----12------|
pm...........................................................................

I need someone to show me the things in life that I can�t find.

e-------------------------|-------------------------|-------------------------|--------------------------|
H-------------------------|-------------------------|-------------------------|--------------------------|
G-------------------------|-------------------------|-------------------------|-12-----------------------|
D-14-14-14-14-14-14-14-14-|-14-14-14-14-14-14-14-14-|-12-12-12-12-12-12-12-12-|-12---12-----14---14------|
A-14-14-14-14-14-14-14-14-|-14-14-14-14-14-14-14-14-|-12-12-12-12-12-12-12-12-|-10---12-----14---14------|
E-12-12-12-12-12-12-12-12-|-12-12-12-12-12-12-12-12-|-10-10-10-10-10-10-10-10-|------10-----12---12------|
pm...........................................................................

I can�t see the things that make true happieness I must be blind.

Solo-Background:
e-------------------------|-------------------------|-------------------------|---------------------|
H-------------------------|-------------------------|-------------------------|------------------12-|
G-------------------------|-------------------------|-------------------------|-12---------------12-|
D-14-14-14-14-14-14-14-14-|-14-14-14-14-14-14-14-14-|-12-12-12-12-12-12-12-12-|-12---12-----14---12-|
A-14-14-14-14-14-14-14-14-|-14-14-14-14-14-14-14-14-|-12-12-12-12-12-12-12-12-|-10---12-----14------|
E-12-12-12-12-12-12-12-12-|-12-12-12-12-12-12-12-12-|-10-10-10-10-10-10-10-10-|------10-----12------|
pm...........................................................................

e-------------------------|-------------------------|-------------------------|---------------------|
H-------------------------|-------------------------|-------------------------|------------------12-|
G-------------------------|-------------------------|-------------------------|-12---------------12-|
D-14-14-14-14-14-14-14-14-|-14-14-14-14-14-14-14-14-|-12-12-12-12-12-12-12-12-|-12---12-----14---12-|
A-14-14-14-14-14-14-14-14-|-14-14-14-14-14-14-14-14-|-12-12-12-12-12-12-12-12-|-10---12-----14------|
E-12-12-12-12-12-12-12-12-|-12-12-12-12-12-12-12-12-|-10-10-10-10-10-10-10-10-|------10-----12------|
pm...........................................................................

e-------------------------|-------------------------|-------------------------|---------------------|
H-------------------------|-------------------------|-------------------------|------------------12-|
G-------------------------|-------------------------|-------------------------|-12---------------12-|
D-14-14-14-14-14-14-14-14-|-14-14-14-14-14-14-14-14-|-12-12-12-12-12-12-12-12-|-12---12-----14---12-|
A-14-14-14-14-14-14-14-14-|-14-14-14-14-14-14-14-14-|-12-12-12-12-12-12-12-12-|-10---12-----14------|
E-12-12-12-12-12-12-12-12-|-12-12-12-12-12-12-12-12-|-10-10-10-10-10-10-10-10-|------10-----12------|
pm...........................................................................

e-------------------------|-------------------------|-------------------------|---------------------|
H-------------------------|-------------------------|-------------------------|------------------12-|
G-------------------------|-------------------------|-------------------------|-12---------------12-|
D-14-14-14-14-14-14-14-14-|-14-14-14-14-14-14-14-14-|-12-12-12-12-12-12-12-12-|-12---12-----14---12-|
A-14-14-14-14-14-14-14-14-|-14-14-14-14-14-14-14-14-|-12-12-12-12-12-12-12-12-|-10---12-----14------|
E-12-12-12-12-12-12-12-12-|-12-12-12-12-12-12-12-12-|-10-10-10-10-10-10-10-10-|------10-----12------|
pm...........................................................................

Solo:
e-------------------|-------------------|----------------------|
H-------------------|-------------------|----------------------|
G-12p9----9---------|-----9----9--------|----------------------|
D------12-----------|-------12---12-9---|----------------------|
A-------------------|-------------------|-10h12-10h12-10\7-7---|
E-------------------|-------------------|----------------------|

e------------------|------------------|---------------------------|
H------------------|------------------|-----8-10-10b12r10p8-10b12-|
G------------------|----------7h9-9---|-7-9-----------------------|
D------------------|------7h9---------|---------------------------|
A-10-7---7---------|-7h10-------------|---------------------------|
E------------------|------------------|---------------------------|

e-------------------|--------------------|-------------------|
H-r10p8-10--8-------|--------------17-15-|-17----17----17-15-|
G-------------9-9-9-|-7-9-9-9-9/16-------|-------------------|
D-------------------|--------------------|-------------------|
A-------------------|--------------------|-------------------|
E-------------------|--------------------|-------------------|

e-17b19-17b19-17b19r17p15-17p15----|-15p12----------------------------|
H-------------------------------17-|-------15-15p12-------------------|
G----------------------------------|----------------14-12-14-14p12----|
D----------------------------------|-------------------------------14-|
A----------------------------------|----------------------------------|
E----------------------------------|----------------------------------|

e--------------------------|-----------------------------------|
H--------------------------|-----------------------------------|
G-12----12-14b16r14-12-----|-14b16--12h14p12----12-------------|
D----14--------------------|-----------------14----14----------|
A--------------------------|--------------------------12h13h14-|
E--------------------------|-----------------------------------|

e-----------------------------|---------------------|-------------|
H-----------------------------|---------------------|-------------|
G-----------------------------|-----------12--------|-------------|
D-12--------------------------|-12--12-14----14-12--|-14-12----14-|
A-----14-12-14p12----12h13h14-|---------------------|-------------|
E-----------------15----------|---------------------|-------------|

Verse 2:
e-------------------------|-------------------------|-------------------------|---------------------|
H-------------------------|-------------------------|-------------------------|------------------12-|
G-------------------------|-------------------------|-------------------------|-12---------------12-|
D-14-14-14-14-14-14-14-14-|-14-14-14-14-14-14-14-14-|-12-12-12-12-12-12-12-12-|-12---12-----14---12-|
A-14-14-14-14-14-14-14-14-|-14-14-14-14-14-14-14-14-|-12-12-12-12-12-12-12-12-|-10---12-----14------|
E-12-12-12-12-12-12-12-12-|-12-12-12-12-12-12-12-12-|-10-10-10-10-10-10-10-10-|------10-----12------|
pm...........................................................................

e-------------------------|-------------------------|-------------------------|---------------------|
H-------------------------|-------------------------|-------------------------|------------------12-|
G-------------------------|-------------------------|-------------------------|-12---------------12-|
D-14-14-14-14-14-14-14-14-|-14-14-14-14-14-14-14-14-|-12-12-12-12-12-12-12-12-|-12---12-----14---12-|
A-14-14-14-14-14-14-14-14-|-14-14-14-14-14-14-14-14-|-12-12-12-12-12-12-12-12-|-10---12-----14------|
E-12-12-12-12-12-12-12-12-|-12-12-12-12-12-12-12-12-|-10-10-10-10-10-10-10-10-|------10-----12------|
pm...........................................................................

e-------------------------|-------------------------|-------------------------|---------------------|
H-------------------------|-------------------------|-------------------------|------------------12-|
G-------------------------|-------------------------|-------------------------|-12---------------12-|
D-14-14-14-14-14-14-14-14-|-14-14-14-14-14-14-14-14-|-12-12-12-12-12-12-12-12-|-12---12-----14---12-|
A-14-14-14-14-14-14-14-14-|-14-14-14-14-14-14-14-14-|-12-12-12-12-12-12-12-12-|-10---12-----14------|
E-12-12-12-12-12-12-12-12-|-12-12-12-12-12-12-12-12-|-10-10-10-10-10-10-10-10-|------10-----12------|
pm...........................................................................

Make a joke and I will sigh and you will laugh and I will cry.

e-------------------------|-------------------------|-------------------------|--------------------------|
H-------------------------|-------------------------|-------------------------|--------------------------|
G-------------------------|-------------------------|-------------------------|-12-----------------------|
D-14-14-14-14-14-14-14-14-|-14-14-14-14-14-14-14-14-|-12-12-12-12-12-12-12-12-|-12---12-----14---14-let--|
A-14-14-14-14-14-14-14-14-|-14-14-14-14-14-14-14-14-|-12-12-12-12-12-12-12-12-|-10---12-----14---14-ring-|
E-12-12-12-12-12-12-12-12-|-12-12-12-12-12-12-12-12-|-10-10-10-10-10-10-10-10-|------10-----12---12------|
pm...........................................................................

Happieness I cannot feel and love to me is so unreal.

e-------------------|-------------------------|---------------------------------|
H-------------------|-------------------------|---------------------------------|
G-------------------|-------------------------|---------------------------------|
D-10-------12-------|-14-14-14-14-14-14-14-14-|-14-14-14-14-14-14-14-14-14-let--|
A-10-------12-------|-14-14-14-14-14-14-14-14-|-14-14-14-14-14-14-14-14-14-ring-|
E-8--------10-------|-12-12-12-12-12-12-12-12-|-12-12-12-12-12-12-12-12-12------|
pm.................................................

e-------------------|-------------------------|-------------------------|
H-------------------|-------------------------|-------------------------|
G-------------------|-------------------------|-------------------------|
D-10-------12-------|-14-14-14-14-14-14-14-14-|-14-14-14-14-14-14-14-14-|
A-10-------12-------|-14-14-14-14-14-14-14-14-|-14-14-14-14-14-14-14-14-|
E-8--------10-------|-12-12-12-12-12-12-12-12-|-12-12-12-12-12-12-12-12-|
pm.................................................

e-------------------------|-------------------------|-------------------------|---------------------|
H-------------------------|-------------------------|-------------------------|------------------12-|
G-------------------------|-------------------------|-------------------------|-12---------------12-|
D-14-14-14-14-14-14-14-14-|-14-14-14-14-14-14-14-14-|-12-12-12-12-12-12-12-12-|-12---12-----14---12-|
A-14-14-14-14-14-14-14-14-|-14-14-14-14-14-14-14-14-|-12-12-12-12-12-12-12-12-|-10---12-----14------|
E-12-12-12-12-12-12-12-12-|-12-12-12-12-12-12-12-12-|-10-10-10-10-10-10-10-10-|------10-----12------|
pm...........................................................................

And so as you hear these words telling you now of my state.

e-------------------------|-------------------------|-------------------------|---------------------|
H-------------------------|-------------------------|-------------------------|------------------12-|
G-------------------------|-------------------------|-------------------------|-12---------------12-|
D-14-14-14-14-14-14-14-14-|-14-14-14-14-14-14-14-14-|-12-12-12-12-12-12-12-12-|-12---12-----14---12-|
A-14-14-14-14-14-14-14-14-|-14-14-14-14-14-14-14-14-|-12-12-12-12-12-12-12-12-|-10---12-----14------|
E-12-12-12-12-12-12-12-12-|-12-12-12-12-12-12-12-12-|-10-10-10-10-10-10-10-10-|------10-----12------|
pm...........................................................................

I tell you to enjoy life I wish I could but it�s too late.

e-------------------------|-------------------------|-------------------------|---------------------|
H-------------------------|-------------------------|-------------------------|------------------12-|
G-------------------------|-------------------------|-------------------------|-12---------------12-|
D-14-14-14-14-14-14-14-14-|-14-14-14-14-14-14-14-14-|-12-12-12-12-12-12-12-12-|-12---12-----14---12-|
A-14-14-14-14-14-14-14-14-|-14-14-14-14-14-14-14-14-|-12-12-12-12-12-12-12-12-|-10---12-----14------|
E-12-12-12-12-12-12-12-12-|-12-12-12-12-12-12-12-12-|-10-10-10-10-10-10-10-10-|------10-----12------|
pm...........................................................................

e-------------------------|-------------------------|-------------------------|--------------------------|
H-------------------------|-------------------------|-------------------------|--------------------------|
G-------------------------|-------------------------|-------------------------|-12-----------------------|
D-14-14-14-14-14-14-14-14-|-14-14-14-14-14-14-14-14-|-12-12-12-12-12-12-12-12-|-12---12-----14-----------|
A-14-14-14-14-14-14-14-14-|-14-14-14-14-14-14-14-14-|-12-12-12-12-12-12-12-12-|-10---12-----14-----------|
E-12-12-12-12-12-12-12-12-|-12-12-12-12-12-12-12-12-|-10-10-10-10-10-10-10-10-|------10-----12-----------|
pm...........................................................................

OptimusPrime

Submitted by OptimusPrime at Thu 14 Aug, 2003 4:14 pm

Author: ?
Composer: ?
Publisher: ?
Language: English

Reactions

CommonCrawl [Bot]

Follow Muzikum