Black Sabbath

Black Sabbath
Paranoid Ver 5 (Bass tab)

Black Sabbath
Paranoid
(John Osbourne/Anthony Iommi/Terrence Butler/Bill Ward)

This tab does not include the solo, but It has the Verses (People think I'm insane.... All day long I.... Make a joke and....) and the Intro

Intro
-------2-4-7-9-------2-4-7-9-
-2-2-2---------2-2-2---------
-----------------------------
-----------------------------

Verse
---------------------------------------0-----
-2-2-2-2-2-2-2-2-2-2-2-2-0-0-0-0-0-0-0---0-2-
---------------------------------------------
---------------------------------------------

Verse (cont)
-----------------0-5---2--7---------------------------0-5---3-7-
-2-2-2-2-2-2-2-------0------2-2-2-2-2-2-2-2-2-2-2-2-------0-----
---------------3------------------------------------3-----------
----------------------------------------------------------------

Verse (cont)
---------------------------7---7---7---7---7---7---9---9---9---9---9---9---7---7---7-
-2-2-2-2-2-2-2-2-2-2-2-2-0---0---0---0---0---0---2---2---2---2---2---2---5---5---5---
-------------------------------------------------------------------------------------
-------------------------------------------------------------------------------------

Verse (cont)
---7---7---7-
-5---5---5---
-------------
-------------

OptimusPrime

Submitted by OptimusPrime at Thu 14 Aug, 2003 4:14 pm

Author: ?
Composer: ?
Publisher: ?
Language: English

Reactions

CommonCrawl [Bot]

Follow Muzikum