Black Sabbath

Black Sabbath
Paranoid Ver 2 (Bass tab)

SONG: Paranoid
BAND: Black Sabbath
TRANSCRIPTED BY: Maxime Lemerise
DATE: Dec 17th 2001

Note: This is my first Bass Tab... I think it's good...
x: Let Ring the Note

GUITAR INTRO from 0:00 to 0:05

|-----------------------------|
|-----------------0-2-----0-2-| (x2)
|-7--7--7-----0-2-----0-2-----|
|-----------------------------|

|---------------------------------------------------------|
|-------------------------------------------------5-----5-| (x2)
|-7-7-7-7-7-7-7-7-7-7-7-7-7-7-7-7-5-5-5-5-5-5-5-5---5-7---|
|---------------------------------------------------------|

|----------5-----7-----------------------------|
|--------5-----7-------------------------------| (x2)
|-7----3-----5-----7-7-7-7-7-7-7-7-7-7-7-7-7-7-|
|----------------------------------------------|
x

|---------------------------------------------------------|
|-------------------------------------------------5-----5-|
|-7-7-7-7-7-7-7-7-7-7-7-7-7-7-7-7-5-5-5-5-5-5-5-5---5-7---|
|---------------------------------------------------------|

|---------------------------------------------------------|
|-----------------------------0-2-----------------5-----5-|
|-7-7-7-7-7-7-7-7-7-7-7-7-0-2-----5-5-5-5-5-5-5-5---5-7---|
|---------------------------------------------------------|

|---9---9---9---9---9---9---9---9---7---7---7---7---7---7---7---7---7-|
|---------------------------------------------------------------------| (x2)
|-7---7---7---7---7---7---7---7---5---5---5---5---5---5---5---5---5---|
|---------------------------------------------------------------------|

|---------------------------------------------------------|
|-------------------------------------------------5-----5-| (x2)
|-7-7-7-7-7-7-7-7-7-7-7-7-7-7-7-7-5-5-5-5-5-5-5-5---5-7---|
|---------------------------------------------------------|

|---------------------------------------------------------|
|-----------------------------0-2-----------------5-----5-| (x2)
|-7-7-7-7-7-7-7-7-7-7-7-7-0-2-----5-5-5-5-5-5-5-5---5-7---|
|---------------------------------------------------------|

|---------------------------------------------------------|
|-------------------------------------------------5-----5-| (x4)
|-7-7-7-7-7-7-7-7-7-7-7-7-7-7-7-7-5-5-5-5-5-5-5-5---5-7---|
|---------------------------------------------------------|

|---------------------------------------------------------|
|-----------------------------0-2-----------------5-----5-| (x2)
|-7-7-7-7-7-7-7-7-7-7-7-7-0-2-----5-5-5-5-5-5-5-5---5-7---|
|---------------------------------------------------------|

|---------------------------------------------------------|
|-------------------------------------------------5-----5-| (x2)
|-7-7-7-7-7-7-7-7-7-7-7-7-7-7-7-7-5-5-5-5-5-5-5-5---5-7---|
|---------------------------------------------------------|

|----------5-----7-----------------------------|
|--------5-----7-------------------------------| (x2)
|-7----3-----5-----7-7-7-7-7-7-7-7-7-7-7-7-7-7-|
|----------------------------------------------|
x

|---------------------------------------------------------|
|-----------------------------0-2-----------------5-----5-| (x2)
|-7-7-7-7-7-7-7-7-7-7-7-7-0-2-----5-5-5-5-5-5-5-5---5-7---|
|---------------------------------------------------------|

|---------------------------------------------------------|
|-------------------------------------------------5-----5-|
|-7-7-7-7-7-7-7-7-7-7-7-7-7-7-7-7-5-5-5-5-5-5-5-5---5-7---|
|---------------------------------------------------------|

|-------------------------------------------------------|
|-----------------------------0-2-----------------5-----|
|-7-7-7-7-7-7-7-7-7-7-7-7-0-2-----5-5-5-5-5-5-5-5---5-7-|
|-------------------------------------------------------|

To me, it's good......... If u like it... Rank it please :D

OptimusPrime

Submitted by OptimusPrime at Thu 14 Aug, 2003 4:14 pm

Author: ?
Composer: ?
Publisher: ?
Language: English

Reactions

CommonCrawl [Bot]

Follow Muzikum