Black Sabbath

Black Sabbath
Paranoid Live (Guitar tab)

Sounds Fantastic

The following chords are the only ones used in this song (G2 means
only an alternative formation for G, it's not Gsus2 or something).

E D G C G2
-------------------------------
------------------------12-----
------------12----10----12-----
14----12----12----10----12-----
14----12----10----8------------
12----10-----------------------

Here are the rhythm figures used in the song (2'-' = 8th note)

FIGURE 1A

E-E-E-E-E-E-E-E-|E-E-E-E-E-E-E-E-|D-D-D-D-D-D-D-D-|G-D-----E---G2--|

FIGURE 1B

E-E-E-E-E-E-E-E-|E-E-E-E-E-E-E-E-|D-D-D-D-D-D-D-D-|G-D-----E-------|

FIGURE 2

E---------------|C-------D-------|E-E-E-E-E-E-E-E-|E-E-E-E-E-E-E-E-|

FIGURE 3

E---------------|----------------|D---------------|----------------|

INTRO (4'-' = 8th note)
--------------------------------|--------------------------------|
--------------------------------|--------------------------------|
--------------------------------|--------------------------------|
--------------------------------|--------12-h14----------12------|
(12)h14-----(12)h14-----(12)h14-|12-h14----------12-h14------14--|
12----------12----------12------|--------------------------------|

Rate Me :D

OptimusPrime

Submitted by OptimusPrime at Thu 14 Aug, 2003 4:14 pm

Author: ?
Composer: ?
Publisher: ?
Language: English

Reactions

CommonCrawl [Bot]

Follow Muzikum