Black Sabbath

Black Sabbath
Nightmare (Guitar tab)

|----------------------------------------------------------
|----------------------------------------------------------
|------------5-----7-7--5--------------5-----7-7--5--------
|--5h6h7-----5--7--7-7--5----5h6h7-----5--7--7-7--5--------
|--------0-------------------------0-----------------------
|----------------------------------------------------------


|-------------------------------
|-------------------------------
|----10----10----12----12-------
|----10----10----12----12-------
|-----8-----8----10----10-------
|-------------------------------


|----------------------------------------------------------
|----------------------------------------------------------
|-------------9--8\-------4-4h5------9--8/9-8\-----4--5----
|-------------7--6\-------5-5--------7--6/7-6\-----5--5----
|-0-0-0-0-0-0---------0-0--------0-0-----------------------
|----------------------------------------------------------

OptimusPrime

Submitted by OptimusPrime at Thu 14 Aug, 2003 4:14 pm

Author: ?
Composer: ?
Publisher: ?

Reactions

CommonCrawl [Bot]

Follow Muzikum