Black Sabbath

Black Sabbath
Iron Man Ver 5 (Bass tab)

Iron Man - Black Sabbath
Tabbed By Thiago Valenti

Intro

G--------------------------------------|
D---------------5p4-5p4-5p4------------|
A-----5-5--7-7----------------5-5-7-7--|
E--7-----------------------------------|

Verse 1

G------------------------------------|
D---------------5p4-5p4-5p4----------| 5x
A-----5-5--7-7--------------5-5-7-7--|
E--7---------------------------------|

Bridge 1

A---------5----------------------------------| 2x
E--7-7--------7-6-5-5-5/----0-4-5-5-6--------|


A---------5--------------------|
E--7-7--------7-6-5-5-5/-------|

Verse 2

G---------------------------------------|
D----------------5p4-5p4-5p4------------| 4x
A-----5-5--7-7-----------------5-5-7-7--|
E--7------------------------------------|


Link

A--7--5--|


Bridge 2

G------------------------------------|
D---------------------------7-8-9----| 2x
A------------7-7-7-8-9---------------|
E-7-7--10----------------------------|

A--7--5--|

G------------------------------------|
D---------------------------7-8-9----| 2x
A------------7-7-7-8-9---------------|
E-7-7--10----------------------------|



Verse 3

G--------------------------------------|
D---------------5p4-5p4-5p4------------| 4x
A-----5-5--7-7---------------5-5-7-7---|
E--7-----------------------------------|

Link

A--7--5--|

Bridge 3

G------------------------------------|
D---------------------------7-8-9----| 2x
A------------7-7-7-8-9---------------|
E-7-7--10----------------------------|

A--7--5--|

G------------------------------------|
D---------------------------7-8-9----| 2x
A------------7-7-7-8-9---------------|
E-7-7--10----------------------------|

Solo

G---------------------------------------|
D--9-/-11-9-----------------------------| 2x
A--------------11-10-9------------------|
E---------------------------12-7-7-9----|

Outro

A--7*----| * hold during the riff

Solo

G---------------------------------------|
D--9-/-11-9-----------------------------| 2x
A--------------11-10-9------------------|
E---------------------------12-7-7-9----|

Bridge 4

G------------------------------------|
D---------------------------7-8-9----| 4x
A------------7-7-7-8-9---------------|
E-7-7--10----------------------------|

Verse 4

G--------------------------------------|
D---------------5p4-5p4-5p4------------| 4x
A-----5-5--7-7----------------5-5-7-7--|
E--7-----------------------------------|


Bridge 5

A---------5----------------------------| 2x
E--7-7--------7-6-5-5-5/----0-4-5-5-6--|


A---------5----------------------------|
E--7-7--------7-6-5-5-5/---------------|

Ending

A--5-4-3-2--| 8x

A--5-4-3-4-5-4-5-4--| 3x

OptimusPrime

Submitted by OptimusPrime at Thu 14 Aug, 2003 4:14 pm

Author: ?
Composer: ?
Publisher: ?

Reactions

CommonCrawl [Bot]

Follow Muzikum