Black Sabbath

Black Sabbath
Iron Man Ver 4 (Bass tab)

Song: Iron Man
Band: Black Sabbath
Tabber Person: Me, Cuban Punker
Tuning: Regular



Main Riff

-----------------------------------------------------
-----------------------------------------------------
--2------5----5/7----7---10-9-10-9-10-5-5/7-7--------
-----------------------------------------------------


Other Part

-----------------------------------------------------
-----------0-----------------------------------------
---2---2-------2---1---0-0-0----------0-0------------
-------------------------------0-3-------------------


yea so thats it, rate my tab please and rate it good so i feel cool

OptimusPrime

Submitted by OptimusPrime at Thu 14 Aug, 2003 4:14 pm

Author: ?
Composer: ?
Publisher: ?
Language: English

Reactions

CommonCrawl [Bot]

Follow Muzikum