Black Sabbath

Black Sabbath
In For The Kill (Guitar tab)

Fig A
|----------------------------------------------------------
|----------------------------------------------------------
|--------------------------------5-------7-------5--7------
|--------------------------------5-------7-------5--7------
|-0-0-0-0-0-0-0--0-0-0-0-0-0-0-0---0-0-0---0-0-0-----------
|----------------------------------------------------------

Fig B
"In for the kill, no quarter be shown"
|----------------------------------------------------------
|----------------------------------------------------------
|-----------------------------7-7-7-7-7-7-7----------------
|-------------------------4-5-7-7-7-7-7-7-7----------------
|-5-5-5-5-5-5-5---5-5-5-5-2-3-5-5-5-5-5-5-5----------------
|-3-3-3-3-3-3-3---3-3-3-3----------------------------------

"In for the kill..."
|-------------------------------------||-------------------
|-------------------------------------||-------------------
|-------------------------------------||-------------------
|-5-5-5-5-5-5-5--9--12--7-7-7-7-7-7-7-||-------------------
|-3-3-3-3-3-3-3--7--10--5-5-5-5-5-5-5-||-(back to Fig A)---
|-------------------------------------||-------------------

"...for the kill..." Fgi C
|---------------|--------------|---------------------------
|---------------|--------------|---------------------------
|---------------|--------------|-----7---12---5------------
|-5-5-5-5-5-5-5-|-4-4-4-4-4-4-4|-5---7---12---5---2--------
|-3-3-3-3-3-3-3-|-2-2-2-2-2-2-2|-5---5---10---3---2--------
|---------------|--------------|-3----------------0--------

OptimusPrime

Submitted by OptimusPrime at Thu 14 Aug, 2003 4:14 pm

Author: ?
Composer: ?
Publisher: ?
Language: English

Reactions

CommonCrawl [Bot]

Follow Muzikum