Black Sabbath

Black Sabbath
Fairies Wear Boots Ver 2 (Bass tab)

from - KtuluKid@aol.com

Fairies Wear Boots - Bass
Black Sabbath - Paranoid



intro play 2x
||------------------------------------------|-----------------------
||----5-5---------5-5---------5-3---5-3---3-|------------/7-5-------
||--5-----5-----5-----5-----5-----5-----5---|-----------------7--5-7
||----------3-----------3-------------------|--5--5-5--5------------
play 2x
-----------------------------|--------------------------------------
----------5---7--5-------5-7-|--------------7---9-7---------9-7-----
--------7---7------7-5-7-----|------6-7---9---9-----9-7---9-----9-7-
----5-5----------------------|--7-7---------------------7-----------
play 2x
---------------|-------------|--------------------------------------
---7---9-7-----|-------------|-----------11-9----11-9----9----------
-9---9-----9-7-|--7--5-------|--------11------11------11----7-7-----
---------------|--------7--5-|-7-8-9-----------------------------9-9

--------------------------------------------------------------------
-----------------9----11-9------------11-9---------9----11-9--------
-------7-9-10-11---11------11-9----11------11-9-11---11------11-----
-7-8-9---------------------------9-------------------------------9-9
Goin home late last
--------------------------------|--------------||-------------------
-----------------9----11-9------|--------------||--------------5-3--
-------7-9-10-11---11------11-9-|--7--5--------||-----------------5-
-7-8-9--------------------------|--------7--5--||--3--3-6--6-3------
night pre solo 2x
------------------||------------------------------------------------
------------------||---------------------3-5----5-5--5-3--------5-5-
------------------||-----------------3-5-----------------5-3--------
--3--3-6--6-3-1---||--3--3-3--3-3--5----------3---------------3-----
solo... groove with these notes
----------||-------------------------------|------3-----3---3-5b(7)-
--5-3-----||---------------------5---------|----5---3-5---5---------
------5-3-||-----1---3-3b(5)-------1--3b(5)|------------------------
----------||-3----------------3------------|--3---------------------
outro
-3------||----------------------------------------------------------
---5--3-||-----------------5---3---3---3---3---3-----3---5---5---5--
--------||----------------------------------------------------------
--------||--3-3-3-3-3-3-3----1---1---1---1---1---1-1---3---3---3---3
repeat and fade.
----------------------||/=slide up The timing for the intro is a
----5---5---5-----5---||h=hammer-on little hard, listen for and
----------------------||p=pull-off piece the song together.
-3---3---3---3-3------||( )=bend to

OptimusPrime

Submitted by OptimusPrime at Thu 14 Aug, 2003 4:14 pm

Author: ?
Composer: ?
Publisher: ?
Language: English

Reactions

CommonCrawl [Bot]

Follow Muzikum