Black Sabbath

Black Sabbath
Behind The Wall Of Sleep Ver 2 (Bass tab)

from - KtuluKid@aol.com

Behind The Wall Of Sleep / WASP - Bass
Black Sabbath - Black Sabbath



intro riff bend
||--------------------------------------------7-9(10)9-7-------------
||-----------------/9--9-9--9-7---7h9--9-9--9------------9-9--9-9--9-
||------------------------------9------------------------------------
||--7--7-7--7-7--7---------------------------------------------------

--------7----------------------||-----------------------------------
-7---------9--9-9--9--7--------||-----------------------------------
---9-7------------------9-7-5--||-----------------------------------
-------------------------------||--7--7/--------7--7/-------7--7/---
main riff Precious cups within the flower...
------------||------------------------------------------------------
------------||----------7-5-5h7--7--7-7-5-----------------7-5-------
------------||--0---3---------------------7-5-3---0---3-------5h7--7
---7--7/----||------------------------------------------------------
Feel
------------||--------------------------------------------||--------
------------||---------------------------7--7-7-7-7--5----||--------
---7-7/-----||---5--5--3--6p5p3-------7-----------------7-||--------
---------3--||------------------5-------------------------||--7--5h7
your spirit rise with the priest...
-------------------------------------|| p=pulloff
------------------------9--9-9-9-7---|| h=hammer-on
--5-----5-7----------9-------------9-|| /=slide down
-----7-------7--5\7------------------|| \=slide up

OptimusPrime

Submitted by OptimusPrime at Thu 14 Aug, 2003 4:14 pm

Author: ?
Composer: ?
Publisher: ?
Language: English

Reactions

CommonCrawl [Bot]

Follow Muzikum