Black Sabbath

Black Sabbath
Electric Funeral Complete (Guitar tab)

Electric Funeral
Black Sabbath

Riff 1
e-----------------------------------------------------
B-----------------------------------------------------
G-----------------------------------------------------
D-----------------------------------------------------
A------2-3-2------------------------------------------
E--0-0-------0--2-3-2---------------------------------
repeat

Riff 2
e-----------------------------------------------------
B-----------------------------------------------------
G-----------------------------------------------------
D-----------------------------------------------------
A-----------------------------------------------------
E--0-xxx--7-6-5-3-------------------------------------
repeat

Riff 3
e--------------12--------------12---------------------
B--------------12--------------12---------------------
G--------------12--------------12---------------------
D-----------------------------------------------------
A-----------------------------------------------------
E--12--10--12------12--10--12-------------------------
repeat

use power chords for more effect

OptimusPrime

Submitted by OptimusPrime at Sun 01 Dec, 2002 8:40 am

Author: ?
Composer: ?
Publisher: ?
Language: English

Reactions

1 post

CommonCrawl [Bot]
nickthre
Sun 14 Nov, 2004 2:24 am
i like this its good
1 post • Page 1 of 1

Follow Muzikum