Black Sabbath

Black Sabbath
Electric Funeral Ver 3 (Guitar tab)

Author/Artist: Black Sabbath
Title: Electric Funeral
Album: Paranoid
Transcribed by: Michael-San
Email: RHCP596788@aol.com

------------------------------------------------------------------------------
------------------------------------------------------------------------------
------------------------------------------------------------------------------
------------------------------------------------------------------------------
-----2h3-2----------------2h3-2----------------2h3-2--------------2h3-2-------
-0-0-------0-0-2h3-2--0-0-------0-0-2h3-2--0-0-------0-0-2h3-2-0-0------0-0---


------------------------------------------------------------------------------
------------------------------------------------------------------------------
------------------------------------------------------------------------------
------------------------------------------------------------------------------
------------------------------------------------------------------------------
-2h3-2------------------------------------------------------------------------
VERSE:

------------------------------------------------------------------------------
------------------------------------------------------------------------------
------------------------------------------------------------------------------
------------------------------------------------------------------------------
------2-1-0-------2-1-0-------2-1-0-------2-1-0-------2-1-0-------2-1-0-------
-0000------3-0000------3-0000------3-0000------3-0000------3-0000------3------


------------------------------------------------------------------------------
------------------------------------------------------------------------------
------------------------------------------------------------------------------
------------------------------------------------------------------------------
------2-1-0-------2-1-0-------------------------------------------------------
-0000------3-0000------3------------------------------------------------------
SOL0 1:

------------------------------------------------------------------------------
------------------------------------------------------------------------------
----------12-12-12-12-----------12-12-12-12----------12-12-12-12----------12--
------------------------------------------------------------------------------
------------------------------------------------------------------------------
-12-10-12--------------12-10-12-------------12-10-12-------------12-10-12-----


------------------------------------------------------------------------------
--------------8-10-8-12---8-10-12-10-8---8-10-8-12---8-10-12-10-12------------
-12-12-12---9-----------9--------------9-----------9--------------------------
------------------------------------------------------------------------------
------------------------------------------------------------------------------
------------------------------------------------------------------------------
SOLO 2:

-12-12-12-12-----12-12-12-12-----12-12-12-12-----12-12-12-12------------------
------------------------------------------------------------------------------
------------------------------------------------------------------------------
------------------------------------------------------------------------------
------------------------------------------------------------------------------
------------------------------------------------------------------------------


------------------------------------------------------------------------------
------------------------------------------------------------------------------
------------------------------------------------------------------------------
------------------------------------------------------------------------------
------------------------------------------------------------------------------
--12-12-12---12-12-12---12-12-12---12-12-10-----------------------------------
Order: Intro, Verse, Intro, Verse, Solo 1 (x2), Solo 2,Intro,Verse,Intro

OptimusPrime

Submitted by OptimusPrime at Sun 01 Dec, 2002 8:40 am

Author: ?
Composer: ?
Publisher: ?
Language: English

Reactions

CommonCrawl [Bot]

Follow Muzikum