Black Sabbath

Black Sabbath
Iron Man Solo Ver 3 (Guitar tab)

Sabbath, Black
Iron Man Solo

I have been looking at the solo for this song and realized that only one of them even
came close, so I'll post what I have been playing for a while.

Standard Tuning

solo (Begins at about 3:17)
|---------------------|---------------------|--------------------------|-----------------9---------|
|---------------------|---------------------|--------------------------|-------------9-----12p9----|
|---------------------|----------------9----|---------9-9--------------|-------X-11-11^^--------11-|
|---------------------|------9-9-9h119---11-|-11p9--------11p9---------|-11~~~~--------------------|
|-----7-7h9-9p7---7-9-|-9/11----------------|------11----------11-9h11-|---------------------------|
|-7h9-----------9-----|---------------------|--------------------------|---------------------------|

|------------------|---------9------------------|--------------------------|-9--------12^-12^r-|
|-9----------------|-------9---12p9------9-12p9-|----9-12p9------9-12-12^^-|---12-9-9----------|
|-9-9-9^-----------|-9-11^----------11p9--------|-11--------11p9------12^--|-------------------|
|--------11-9-9h11-|----------------------------|--------------------------|-------------------|
|------------------|----------------------------|--------------------------|-------------------|
|------------------|----------------------------|--------------------------|-------------------|

|-12^r-9h12p9----9----------|------9------------9---------|--------------------------|--------------------|
|-------------12---12^^~~~~-|-12^^---12p9-----9---12p9----|--------------------------|--------------------|
|---------------------------|-------------11^----------11-|-11p9----9-9--------------|-9-9--------------9-|
|---------------------------|-----------------------------|------11-----11p9----9h11-|-----11p9----9h11---|
|---------------------------|-----------------------------|------------------11------|----------11--------|
|---------------------------|-----------------------------|--------------------------|--------------------|

|----------------|
|----------------|
|----------------|
|-9h11-9h11-9h11-|
|----------------|
|----------------|

OptimusPrime

Submitted by OptimusPrime at Sun 01 Dec, 2002 8:40 am

Author: ?
Composer: ?
Publisher: ?
Language: English

Reactions

CommonCrawl [Bot]

Follow Muzikum