Black Sabbath

Black Sabbath
War Pigs Solo (Guitar tab)

Artist: Black Sabbath
Song:War Pigs Solo
Album: Paranoid, Black Sabbath
Submitted By: Jeff Bertie

Here is the first solo of the song war pigs... i only got half...


--------------------------------------------------------------------
--------------------------------------------------------------------
--------------------------------------------------------------------
--------------------------------------------------------------------
--9-10-9h10p9-9/5----5-5h7---9-10-9h10-12-12/9-9-5---5h7------------
------------------7--------------------------------7----------------

--------------------------------------------------------------------
--------------------------------------------------------------------
--------------------------------------------------------------------
--------------------------------------------------------------------
--9-10-9h10p9-9/5----5-5h7---transition into........................
-------------------7------------------------------------------------

--------------------------------------------------------------------
--------------------------------------------------------------------
--------------------------------------------------------------------
-----------------------------12-14-14-12-14b-14b-14b-14p12----12-12-
-9-10-9h10-12-12\14-14-14\17-------------------------------14-------
--------------------------------------------------------------------

Sorry Guys this is all i could figure out for now....... I'll tab
the rest later...... have fun..... and remember ...Black SAbbath
RULZ!

OptimusPrime

Submitted by OptimusPrime at Sun 01 Dec, 2002 8:40 am

Author: ?
Composer: ?
Publisher: ?
Language: English

Reactions

CommonCrawl [Bot]

Follow Muzikum