Black Sabbath

Black Sabbath
Behind The Wall Of Sleep Ver 2 (Guitar tab)

Artist:Black sabbath
Song title:Behind the wall of sleep

Riff 1
e|-------------------------|
B|-------------------------|
G|---8-8-8-8-8---7-7-7-7-7-|
D|---7-7-7-7-7---7-7-7-7-7-|
A|---6-6-6-6-6---6-6-6-6-6-|
E|-7-----------7-----------|

Riff 2
e|------------------------- -------------------------|
B|------------------------- -------------------------|
G|-----7-7-7p6------------- -------------------------|
D|-7-7---------9-9p7---7--- -7-7-----7---------------|
A|-6-6---------------9---9- -6-6-7h9---7-5-7p5---5---|
E|-7-7--------------------- -7-7---------------7---7-|

Riff 3
e|-------------------------------------------------|
B|-------------------------------------------------|
G|-------------------------------------------------|
D|-----5h7-5-5h7---------5p7-5-------------------------|
A|-----------------------------5h7---5-5-3-3h5h6p5p3---|
E|-5-8---------------5-8-----------------------------5-|


Riff 4
e|----------------------------|
B|--------------------11b(12)-|
G|-----7b(8)------------------|
D|----------------------------|
A|-7/9------------7/9---------|

OptimusPrime

Submitted by OptimusPrime at Sun 01 Dec, 2002 8:40 am

Author: ?
Composer: ?
Publisher: ?
Language: English

Reactions

CommonCrawl [Bot]

Follow Muzikum