Black Sabbath

Black Sabbath
Paranoid Guitar Solo (Guitar tab)

Author/Artist: Black Sabbath
Title: Paranoid guitar solo
Album: Paranoid
Transcribed by: Jerry Casperson
Email: springer@2die4.com

guitar solo

-------------------------|------------------------------|---------------------
-------------------------|------------------------------|---------------------
-9--------7-------9------|-------9---7---9----7---------|---------------------
-------------------------|------------------------9\7---|--5--7---5--7--------
-------------------------|------------------------------|---------------------
-------------------------|------------------------------|---------------------


---------------|----------------------------|-------------------------------|-
---------------|----------------------------|-------------------------------|-
---------------|----------------------------|-------------------7----9---9--|-
---------------|--5-------------------------|--5---7----7/--9---------------|-
--5---7----7---|------5-------------7-------|-------------------------------|-
---------------|----------------------------|-------------------------------|-


---------------------------------------|---------------------------------|----
----------8----10----10----8-----10----|-8---10--------8-----------------|----
-7/--9---------------------------------|-------------------9-----9-------|----
---------------------------------------|---------------------------------|----
---------------------------------------|---------------------------------|----
---------------------------------------|---------------------------------|----


-------------------------------12--------|----------------------------------|-
------------------------12---------15----|-15-----------15--------15------12|-
-7---9---9----9/---14--------------------|----------------------------------|-
-----------------------------------------|----------------------------------|-
-----------------------------------------|----------------------------------|-
-----------------------------------------|----------------------------------|-


-15-----15-----15-------12-----15----12---------------|-15--12----------------
--------------------------------------------15----12--|-----------15---15-----
------------------------------------------------------|-----------------------
------------------------------------------------------|-----------------------
------------------------------------------------------|-----------------------
------------------------------------------------------|-----------------------


--------------12--------------------|---------------------------------------|-
-12------12---------15---12---------|---------------------------------------|-
----14-----------------------14-----|--14--12----------12---14----------12--|-
------------------------------------|----------14---------------------------|-
------------------------------------|---------------------------------------|-
------------------------------------|---------------------------------------|-


------------------------------------------------------|-----------------------
------------------------------------------------------|-----------------------
-14--------12--14--12-------12------------------------|-----------------------
-----------------------14--------14----14---12--------|-12--------------------
-------------------------------------------------14---|--------12---10----12--
------------------------------------------------------|-----------------------


------------------------|------------------------------------|----------------
------------------------|------------------------------------|----------------
------------------------|-------------------12---------------|----------------
------------------------|--12-------12-14----------14---12---|-14-----12------
----10-------12/---14---|------------------------------------|----------------
--------12--------------|------------------------------------|----------------


-------|----------------------------------------------------------------------
-------|----------------------------------------------------------------------
-------|----------------------------------------------------------------------
-14\---|----------------------------------------------------------------------
-------|----------------------------------------------------------------------
-------|----------------------------------------------------------------------


-|----------------------------------------------------------------------------
-|----------------------------------------------------------------------------
-|----------------------------------------------------------------------------
------------------------------------------------------------------------------
-|----------------------------------------------------------------------------
-|----------------------------------------------------------------------------

OptimusPrime

Submitted by OptimusPrime at Sun 01 Dec, 2002 8:39 am

Author: ?
Composer: ?
Publisher: ?
Language: English

Reactions

CommonCrawl [Bot]

Follow Muzikum